» » »

Against All Authority, Dinkas Tabs (ver.1)

Artists:  A B C D E F G H I J K L M N O P Q R S T U V W X Y Z # 

Dinkas Tabs (ver.1)

Against All Authority Tabs
Rating:
0/5 (0 votes)
Dinkas lessons Tabs too difficult? Try these video lessons and learn fast
                Tuning:Standard
Distorted:E A D G B e

This is correct.
Intro -
e|------------------------------------------|
B|------------------------------------------|
G|------------------------------------------|
D|------------------------------------------|
A|-----------4-3-----------3-2-2-2-2-3-4----|
E|-0-2-2-2-2-----0-2-2-2-2---------------0--|

Verse - "Night falls..." (ska chords)
e|-2---5---7---3---2---5---7---5---3---------|
B|-2---7---7---3---2---7---7---5---3---------|
G|-3---7---8---4---3---7---8---6---4---------|
D|-4---7---9---5---4---7---9---7---5---------|
A|-4---5---9---5---4---5---9---7---5---------|
E|-2-------7---3---2-------7---5---3---------|

Chorus -
e|-----------------------------|
B|-----------------------------|
G|-----6-5--------5-4-5--------|
D|--4--6-5-----4--5-4-5--4-----|
A|--4--4-3-----4--3-2-3--4-----|
E|--2-------0--2---------2-----|

Outro -
e|------------------------------------------------------------|
B|------------------------------------------------------------|
G|-------5-4---------------------------------9/11--5-4--------|
D|--2/4--5-4---------------------------------9/11--5-4--------|
A|--2/4--3-2---then throw this in there------7/9---3-2--------|
E|--0/2-------------------------------------------------------|

End -
e|------------|
B|------------|
G|-5-4-2------|
D|-5-4-2--4---|
A|-3-2-0--4---|
E|--------2---|
            

comments powered by Disqus
↑ Back to top | Against All Authority Tabs for Dinkas. Lyrics for acoustic guitar and electric guitar. Tablatures and chords are parodies/interpretations of the original songs. You may use it for private study, scholarship, research or language learning purposes only