» » »

Court Bass tabs (ver.1)

Artists:  A B C D E F G H I J K L M N O P Q R S T U V W X Y Z # 

Court Bass tabs (ver.1)

Against All Authority
Rating:
0/5 (0 votes)

Hard to play? Try these video lessons and learn fast.
                Intro:   
G-------------------------------------------------------------]
D-----------------4-3-0-------------------3-3-3-2-------------]
A-----0-3-5------------------3-3---5-5--------------3---------]
E-------------------------------------------------------------]

Verse:
G--------------------------------*----------------------------]
D--------------------------------*----------------4-----------]
A--------------------------------*---------4h5----------------]
E--5-5-5-5-5---0-0-0-0-0---------*5-5-5-5----------5----------]

(play part before stars three times)

Chorus:
G------------------------------------------]
D------------------------------------------]
A------------------------------------------]
E--0-0-0-0---3-3-3---5-5-5-----------------]

Part After Chorus:
G------------------------------------------------------------------------]
D------------------------------------------------------------------------]
A-0-4-7-5-4--4-7-5-4--0-4-7-5-4-----------------------0-4-7-5-4--4-7-5-4-]
E---------------------------------0-4-7-5-4--4-7-5-4---------------------]
            
Hard to play? Try these video lessons and learn fast. | Correct




comments powered by Disqus
↑ Back to top | Tablatures and chords are parodies/interpretations of the original songs. You may use it for private study, scholarship, research or language learning purposes only