» » »

Against All Authority, Commiting The Truth Bass tabs (ver.1)

Artists:  A B C D E F G H I J K L M N O P Q R S T U V W X Y Z # 

Commiting The Truth Bass tabs (ver.1)

Against All Authority Tabs
 Rating:
4/5 (4 votes)
Commiting The Truth lessons Tabs too difficult? Try these video lessons and learn fast
1
                \INTRO (Let each ring out):
G|---------------------------------------------------------------------------|
D|---------------------------------------------------------------------------|
A|------3-2-3------3-2-3-----------------------------------------------------|
E|---0--------3--------------------------------------------------------------|

INTRO (cont.) + VERSE + CHORUS + OUTRO(most of the song consists of this line):
G|---------------------------------------------------------------------------|
D|---------------------------------------------------------------------------|
A|---0-0-------3-2-2---------------------------------------------------------|
E|-------0h2h3---------------------------------------------------------------|

PRECHORUS (play this after playing the verse x4):
G|---------------------------------------------------------------------------|
D|---------------------------------------------------------------------------|
A|------------3-3-3-3-3-0-0--------------------------------------------------|
E|--3-3-3-3-3----------------------------------------------------------------|

BRIDGE 1 ("When you speak out, you will recieve no praise...."):
(Repeat part before stars x3, then play the part after the stars)
G|-------------------------------------*--------------------------------------|
D|-------------------------------------*--------------------------------------|
A|---5-5-5-----------7-7-7-------------*---7-7-7-7-7-7-7-7----7--5--3--2------|
E|---------5-5-5-5-5-------8-8-8-8-8---*--------------------------------------|

BRIDGE 2 ("....***..........YOU......"):
G|---------------------------------------------------------------------------|
D|---------------------------------------------------------------------------|
A|---------------------------------------------------------------------------|
E|---5-5-3-3-5-----5-5-3-3-5-----5-5-3-3-5-5-3-3-5-5-3-3-5-5-3-3-------------|
            
Submit corrections

comments powered by Disqus
↑ Back to top | Against All Authority Bass for Commiting The Truth. Lyrics for acoustic guitar and electric guitar. 1 Tablatures and chords are parodies/interpretations of the original songs. You may use it for private study, scholarship, research or language learning purposes only