» » »

Against All Authority, At Our Expense Bass tabs (ver.1)

Artists:  A B C D E F G H I J K L M N O P Q R S T U V W X Y Z # 

At Our Expense Bass tabs (ver.1)

Against All Authority Tabs
 Rating:
4/5 (4 votes)
At Our Expense lessons Tabs too difficult? Try these video lessons and learn fast
                Intro
G|---------------------------------------------------------------------------|
D|---------------------------------------------------------------------------|
A|---------------5--5--5-5-4-4----------------5--5-4-4-----------------------|
E|---5--5-5-0-5----------------7--5--5-5-0-5-----------7-7-4-4-5--5-5-0-5----|

G|---------------------------------------------------------------------------|
D|---------------------------------------------------------------------------|
A|---5--5--5-5-4-4---------------5-------------------------------------------|
E|-----------------7--5--5-5-0-5---------------------------------------------|

Verse
G|---------------------------------------------------------------|
D|---------------------------------------------------------------| 
A|---------------5--5--5-5-4-4----------------5--5-4-4-----------| 2 times
E|---5--5-5-0-5----------------7--5--5-5-0-5-----------7-7-4-4---|

G|------------------------------------         ------------------------------|
D|------------------------------------         ------------------------------|
A|---------------5--5--5-5-4-4-------- 2 times -----------------5-5-5-5-5-5--|
E|---5--5-5-0-5----------------7--5---         -5-5-5-5-5-5-5-5--------------|

G|-------------------------|
D|-------------------------|
A|---5-5-7-7-7-7-7-7-7-7---|
E|-------------------------|

Chorus
G|---------------------------------------------------------------------|
D|---------------------------------------------------------------------|
A|----------4------------------------4-5-5-5-5-5-5-5-4--------4--------|
E|---5--5-5---3-3-3-3-3-3-3-3-5--5-5-------------------5--5-5--3--3-3--|

G|--------------------------------------|
D|--------------------------------------|
A|--------------------------5--5--5-4---| 2 times
E|---2-2-2--0-0-0-0-0-0-0-0-------------|

G|-----------------------         ----------------------------------|
D|-----------------------         ----------------------------------|
A|-------------5--5-5-5-- 3 times --7--7-7-7-7-7-7-7-7-5-5-4-4------|
E|---5--5-3-3------------         -----------------------------7-7--|

G|----------------------         -----------------------------|
D|----------------------         -----------------------------|
A|------------5--5-5-5-- 3 times -----------------------------|
E|---5--5-3-3-----------         --0--0-0-0-0-0-0-0-0-2--3/5--|
            
Submit corrections

comments powered by Disqus
↑ Back to top | Against All Authority Bass for At Our Expense. Lyrics for acoustic guitar and electric guitar. Tablatures and chords are parodies/interpretations of the original songs. You may use it for private study, scholarship, research or language learning purposes only