» » »

Against All Authority, Another *** You Song Tabs (ver.1)

Artists:  A B C D E F G H I J K L M N O P Q R S T U V W X Y Z # 

Another *** You Song Tabs (ver.1)

Against All Authority Tabs
 Rating:
4/5 (4 votes)
Another *** You Song lessons Tabs too difficult? Try these video lessons and learn fast
                Intro
e|-------------------------|
B|-------------------------|
G|-1-1-1-33p00-------0h1h3-|
D|-------------1-1-1-------|
A|-------------------------|
E|-------------------------|

To them we're paper...
e|---------------------------------------------------------------------------|
B|---------------------------------------------------------------------------|
G|------------------------x9x9x9x9----------------7x7x7x6--------------------|
D|-7x7x7x7x2x2x2x2x7x7x7x7x9x9x9x97x7x7x7x2x2x2x2x7x7x7x6x7------------------|
A|-7x7x7x7x2x2x2x2x7x7x7x7x7x7x7x77x7x7x7x2x2x2x2x5x5x5x4x7------------------|
E|-5x5x5x5x0x0x0x0x5x5x5x5--------5x5x5x5x0x0x0x0x--------5------------------|

One hand washes the other...
e|---------------------------------------------------------------------------|
B|---------------------------------------------------------------------------|
G|----------------------99999999---------------7777/66-----------------------|
D|-777777-222222-777777-99999999-777777-222222-7777/667----------------------|
A|-777777-222222-777777-77777777-777777-222222-5555/447----------------------|
E|-555555-000000-555555----------555555-000000--------5----------------------|

Outro                         last time
e|---------------------------------------|
B|---------------------------------------|
G|-1-1-1-33p00-------0h1h3--11111-33333-1|
D|-------------1-1-1--------------------2|
A|---------------------------------------|
E|---------------------------------------|
            
Submit corrections

comments powered by Disqus
↑ Back to top | Against All Authority Tabs for Another *** You Song. Lyrics for acoustic guitar and electric guitar. Tablatures and chords are parodies/interpretations of the original songs. You may use it for private study, scholarship, research or language learning purposes only