» » »

Another F You Song Bass tabs (ver.1)

Artists:  A B C D E F G H I J K L M N O P Q R S T U V W X Y Z # 

Another F You Song Bass tabs (ver.1)

Against All Authority
Rating:
0/5 (0 votes)

Hard to play? Try these video lessons and learn fast.
                Intro: 
G|---------------------------------------------------------------------------| 
D|---------------------------------------------------------------------------| 
A|---------------------------------------------------------------------------| 
E|--5-5--5-5-5----0-0--0-0-0-----5-5--5-5-5----0-0--0-0-0--------------------| 

Verse: 
G|---------------------------------------------------------------------------| 
D|---------------------------------------------------------------------------| 
A|--------4--7-----------2----------4--7----5--5-5--7-5-4--------------------| 
E|--5--5--------0-0--4-------5--5--------------------------------------------| 


G|---------------------------------------------------------------------------| 
D|---------------------------------------------------------------------------| 
A|--------4--7----------2----5--5--5-4---------------------------------------| 
E|--5--5--------0-0--4-------------------7-5---------------------------------| 

Chorus: 
G|---------------------------------------------------------------------------| 
D|---------------------------------------------------------------------------| 
A|--------------------------------------------7-5-4--------------------------| 
E|--5--5--5-5-5---0--0--0-0-0---5--5--5-5-5------------7---------------------| 

G|---------------------------------------------------------------------------| 
D|---------------------------------------------------------------------------| 
A|------------------------------5--5--5-4------------------------------------| 
E|--5--5--5-5-5---0--0--0-0-0---------------5--------------------------------| 

Outro: 
G|---------------------------------------------------------------------------| 
D|---------------------------------------------------------------------------| 
A|---------------------------------------------------------------------------| 
E|--5-5--5-5-5---0-0--0-0-0---5-5--5-5-5---0-0--0-0-0------------------------| 

G|---------------------------------------------------------------------------| 
D|---------------------------------------------------------------------------| 
A|-----------------------------5-5--5-5-5---7-7--7-7-7-----------------------| 
E|--5-5--5-5-5---0-0--0-0-0-----------------------------------5--------------|
            
Hard to play? Try these video lessons and learn fast. | Correct




comments powered by Disqus
↑ Back to top | Tablatures and chords are parodies/interpretations of the original songs. You may use it for private study, scholarship, research or language learning purposes only