» » »

Against All Authority, Above The Law Bass tabs (ver.1)

Artists:  A B C D E F G H I J K L M N O P Q R S T U V W X Y Z # 

Above The Law Bass tabs (ver.1)

Against All Authority Tabs
 Rating:
4/5 (4 votes)
Above The Law lessons Tabs too difficult? Try these video lessons and learn fast
1
                Intro
G|------------------------------------------------------------------------------
D|------------------------------------------------------------------------------
A|-55555555-------------55555555-77--------------------2222-3333-5555-----------
E|--------------55555555-----------------55555555-3333---------------------5555-
G|----------------|
D|----------------|
A|-4444-5555-7777-|
E|----------------|     x2

Verse(A,B)
A
G|----------------------------------------------|
D|-----4---------------------6--------9-7-6-----|
A|-55---54--------4-5/7-7---7-77----------9-7-6-|
E|-----------5-5-5------------------------------|     x3    
B
G|-------------------------------|
D|-----4-------------------------|
A|-55---54--------4-5/7-77777777-|
E|-----------5-5-5---------------|

Chorus
G|----------------------------------------------------------------|
D|----------------------------------------------------------------|
A|-777-777-777-------777-777-777-------777-777-777------6666-7777-|
E|-------------7-5---------------7-5---------------7-5------------|     x2

End
G|---------|
D|---------|
A|-5______-|
E|---------|

Order
Intro
Verse 
Chorus
Verse
Chorus
Verse 
Chorus
Intro
End
            
Submit corrections

comments powered by Disqus
↑ Back to top | Against All Authority Bass for Above The Law. Lyrics for acoustic guitar and electric guitar. 1 Tablatures and chords are parodies/interpretations of the original songs. You may use it for private study, scholarship, research or language learning purposes only