» » »

Against All Authority, 24 Hour Roadside Resistence Bass tabs (ver.1)

Artists:  A B C D E F G H I J K L M N O P Q R S T U V W X Y Z # 

24 Hour Roadside Resistence Bass tabs (ver.1)

Against All Authority Tabs
 Rating:
4/5 (4 votes)
24 Hour Roadside Resistence lessons Tabs too difficult? Try these video lessons and learn fast
                Part A
G|---------------------------------------------------------------------------|
D|---------------------------------------------------------------------------|
A|---0-0--0-----5-5-5--------------------------------------------------------|
E|----------3-3--------------------------------------------------------------|
  we're under attack... a knife in the back from you

Part B
G|---------------------------------------------------------------------------|
D|---------------------------------------------------------------------------|
A|---2---5>----2---5>----2---5-5-5-5-2-------3-3-3-0-0-0---------------------|
E|-------------------------------------3-3-3---------------------------------|
  tied to this world by these for strings i play... and they're always outta
	tune

Part C
G|---------------------------------------------------------------------------|
D|---------------------------------------------------------------------------|
A|------------------------------3-3-3-3-2-2-2-2------------------------------|
E|--2-2-2-2h3-3-3-3-3p2-2-2-2-2----------------------------------------------|
  and you'd look so pretty with your head on fire....

Outro
G|---------------------------------------------------------------------------|
D|---------------------------------------------------------------------------|
A|----------------3-3-3-2-0--------------------------------------------------|
E|--2-2-2-2-3-3-2------------------------------------------------------------|
  you sent us a letter. we wrote you a song. roadside resistance
            
Submit corrections

comments powered by Disqus
↑ Back to top | Against All Authority Bass for 24 Hour Roadside Resistence. Lyrics for acoustic guitar and electric guitar. Tablatures and chords are parodies/interpretations of the original songs. You may use it for private study, scholarship, research or language learning purposes only