>
 >
Tag-ulan

Tag-ulan Guitar Tabs

After Image - Tag-ulan chords, tabs, tablatures, lyrics

Guitar lessons | Add/correct | Request | Top 50 tabs Artists:  A B C D E F G H I J K L M N O P Q R S T U V W X Y Z 0-9

Tag-ulan Guitar Tabs – After Image

CD, Sheet music, Poster

Do you like Tag-ulan? Share with your friends now
TabsUkulele
 

 Song title:Tag-ulan

 :Tag-ulan Tab:

 Chorus: (eto po yung chorus bago mag bridge)
 e----17----17----17----17----17----17----17----17----17----17--|
 b-15----15----15----15----15----15----15----15----15----15-----|
 g--------------------------------------------------------------|
 d--------------------------------------------------------------|
 a--------------------------------------------------------------|
 e--------------------------------------------------------------|
 Bridge:
 e---x------x------x------x------x------x------x------x--------|
 b---x------x------x------x------x------x------x------x--------|
 g---9------x------9------x------7------x------7------x--------|
 d---9-[5x]-5------9-[5x]-5------7-[5x]-5------7-[5x]-5--------|
 a---7------5-[5x]-7------5-[5x]-5------5-[5x]-5------5-[5x]---|
 e---x------3------x------3------x------3------x------3--------| 
 Solo:(without effects)
 e-19p17-14-------------10/12-10-14b-17-14----------------|
 b----------12/15-12/15--------------------17-15/17-15----|
 g--------------------------------------------------------|
 d--------------------------------------------------------|
 a--------------------------------------------------------|
 e--------------------------------------------------------|

 e-17-15-14-15----------------12----------------7-----------|
 b-------------------15-17-15----15-12------------10-7------|
 g-------------14-16-------------------14/16-14--------9----|
 d----------------------------------------------------------|
 a----------------------------------------------------------|
 e----------------------------------------------------------|

 e----------------------------------10----|
 b----------------------10-10/12-12-------|
 g-7/9-9-7/9-9-----9/11-------------------|
 d-7/9---7/9---9-7------------------------|
 a----------------------------------------|
 e----------------------------------------|

 e-17-15-14-12--15-14-12-----14-12--------12-----------------------------|
 b-----------------------15--------15-14-----15-14-12--14-12-------------|
 g-----------------------------------------------------------14-11-14----|
 d-----------------------------------------------------------------------|
 a-----------------------------------------------------------------------|
 e-----------------------------------------------------------------------|

 e-------12-10----|
 b-12-14----------|
 g----------------|
 d----------------|
 a----------------|
 e----------------|
 post na lang kaung comment...
 pm nyo ko kung mganda....


 
 

 

 





Comments


Popular After Image tabs & chords
Habang May Buhay Chords
Next In Line Chords
Only You Chords
Tag-Araw Chords
Mangarap Ka Tabs
Musikero Ukulele
Only You Ukulele
Standing By Your Side Ukulele
Tag-ulan Ukulele
Without You Ukulele


Song lyrics



↑ Back to top | Tablatures and chords are parodies/interpretations of the original songs. You may use it for private study, scholarship, research or language learning purposes only
© 2014 AZChords.com Contact us | Privacy policy | DMCA | Add/correct tabs | Request tabs | Top 50 tabs