» » »

After Forever, Zenith Tabs (ver.1)

Artists:  A B C D E F G H I J K L M N O P Q R S T U V W X Y Z # 

Zenith Tabs (ver.1)

After Forever Tabs
 Rating:
4/5 (4 votes)
Zenith lessons Tabs too difficult? Try these video lessons and learn fast
                Band:  After Forever

Copyrighted by:  Transmission Records (bankrupt)
Version 1.0 - 2001
Version 1.1 - 2003 (limited edition)


Note:
The double Sander name is correct.

Note:
Tuning is custom E
e|
B|
G|
D|
A|
E|

Note:
\  = slide down
=  = let ring
.  = palm mute

Riff 1a:
|-12-------13-------|-12-------13-------|-12-------13-------|------------------|
|----10-13----10-13-|----10-13----10-13-|----10-13----10-13-|-12-10-9-10-12-13-|
|-------------------|-------------------|-------------------|------------------|
|-------------------|-------------------|-------------------|------------------|
|-------------------|-------------------|-------------------|------------------|
|-------------------|-------------------|-------------------|------------------|

Riff 1b:
|-7-----8-----|-7-----8-----|-7-----8-----|--------------|
|---5-8---5-8-|---5-8---5-8-|---5-8---5-8-|-7-5----------|
|-------------|-------------|-------------|-----8-9==\\\-|
|-------------|-------------|-------------|--------------|
|-------------|-------------|-------------|--------------|
|-------------|-------------|-------------|--------------|

Riff 2:
|--------------------------|---------------------------|
|--------------------------|---------------------------|
|--------------------------|---------------------------|
|--------------------------|--------------2-5-4--------|
|-2-2-2-2-222--2-2-2-2-222-|-2-2-2-2-222--0-3-2--------|
|-0-0-0-0-000--0-0-0-0-000-|-0-0-0-0-000---------------|
  . . . . ...  . . . . ...   . . . . ...  . . .

|--------------------------|---------------------------|
|--------------------------|---------------------------|
|--------------------------|---------------------------|
|--------------------------|--------------2-5-4==------|
|-2-2-2-2-222--2-2-2-2-222-|-2-2-2-2-222--0-3-2==------|
|-0-0-0-0-000--0-0-0-0-000-|-0-0-0-0-000---------------|
  . . . . ...  . . . . ...   . . . . ...  . .


Riff 2' (four times):
|--------------------------|---------------------------|
|--------------------------|---------------------------|
|-4------------4-----------|-4----------------2--------|
|-------5------------5-----|-------5------4-5------4-5-|
|--------------------------|---------------------------|
|--------------------------|---------------------------|

Fill 1:
|--------------------------|
|--------------------------|
|-4------------2-----5-----|
|-------4------------------|
|--------------------------|
|--------------------------|

Riff 2  agayn
Riff 2' agayn
Fill 1  agayn

Fill 2:
  Sander Left Speaker
|------------------------5-7--|
|-----------------5-7--8------|
|----------4-5--7-------------|
|---4-5--7--------------------|
|-7---------------------------|
|-----------------------------|
|                             |
| Sander Right Speaker        |
|-----------------------------|
|-----------------------------|
|----------------------4-5-7--|
|---------------4-5-7---------|
|-----------------------------|
|-----------------------------|

Riff 3 (twice):
|---------------------------------|----------------------------------|
|---------------------------------|----------------------------------|
|-------------------------5=-5=-5-|-4=-------------------------------|
|-2=----0=--2=--5=--4=------------|-------4=--5=-\-----0=h2-----2=h4-|
|---------------------------------|----------------2-3------3-5------|
|---------------------------------|----------------.-.------.-.------|

Riff 4:
|-------------------|-------------------|
|-------------------|-------------------|
|-------------------|-------------------|
|-------------------|-------------------|
|-22222222-22222222-|-22222222-22222222-|
|-00000000-00000000-|-00000000-00000000-|
  ........ ........   ........ ........

|-------------------|-------------------|
|-------------------|-------------------|
|-------------------|-------------------|
|-------------------|-------------------|
|-22222222-22222222-|-22222222-22222222-|
|-00000000-00000000-|-22222222-22222222-|
  ........ ........   ........ ........
|-------------------|-------------------|
|-------------------|-------------------|
|-------------------|-------------------|
|-------------------|-------------------|
|-22222222-22222222-|-22222222-22222222-|
|-00000000-00000000-|-00000000-00000000-|
  ........ ........   ........ ........

|-------------------|-------------------|
|-------------------|-------------------|
|-------------------|-------------------|
|-------------------|-------------------|
|-55555555-55555555-|-22222222-22222.---|
|-33333333-33333333-|-22222222-22222.---|
  ........ ........   ........ ......

Riff 2  agayn
Riff 2' agayn
Fill 1  agayn, ending on b4.

Floor singing

  1 2 3 4 5 6  | 1 2 3 4 5 6  | 1 2 3 4 5 6  | 1 2 3 4 5 6  |
|--------------|--------------|--------------|--------------|
|--------------|--------------|--------------|--------------|
|-------f#-----|-e---------d--|-e---------f#-|-f#----f#--g--|
|--------------|--------------|--------------|--------------|
|--------------|--------------|--------------|--------------|
|--------------|--------------|--------------|--------------|

  1 2 3 4 5 6  | 1 2 3 4 5 6  | 1 2 3 4 5 6  | 1 2 3 4 5 6  |
|--------------|--------------|--------------|--------------|
|--------------|-----------c--|--------------|--------------|
|-g------------|-a-----b------|-b---------g--|-f#--g---e----|
|--------------|--------------|--------------|--------------|
|--------------|--------------|--------------|--------------|
|--------------|--------------|--------------|--------------|

  1 2 3 4 5 6  | 1 2 3 4 5 6  | 1 2 3 4 5 6  | 1 2 3 4 5 6  |
|--------------|--------------|--------------|--------------|
|--------------|-----------c--|--------------|-----------d--|
|-b-----e------|-d-----b------|-b-----e---e--|-e-f#---------|
|--------------|--------------|--------------|--------------|
|--------------|--------------|--------------|--------------|
|--------------|--------------|--------------|--------------|

  1 2 3 4 5 6  | 1 2 3 4 5 6  | 1 2 3 4 5 6  | 1 2 3 4 5 6  |
|--------------|--------------|--------------|--------------|
|-d-------c----|-----------d--|-c-c----------|--------------|
|-----------b--|-a-----g------|--b--------g--|-f#------e----|
|--------------|--------------|--------------|--------------|
|--------------|--------------|--------------|--------------|
|--------------|--------------|--------------|--------------|

Solo (a):
  Sander Left Speaker
|-------------------------|-------------------------|-------------------------|
|-------------------------|-------------------------|-------------------------|
|------------------------2|---------2-4-2==---2-4-5-|-4==---4-2---------------|
|-2==---2-4-5-4==---4-5-5-|-5==---5-----------------|-----------5-4==---------|
|-------------------------|-------------------------|-------------------5==---|
|-------------------------|-------------------------|-------------------------|
|                         |                         |                         |
| Sander Right Speaker    |                         |                         |
|-------------------------|-------------------------|-------------------------|
|-------------------------|-----------3---------3-5-|-3==---3-----------------|
|---------2-4-2==---2-4-45|-4==---4-5---5==---5-----|---------5-4-2==---------|
|-5==---5-----------------|-------------------------|-------------------4==---|
|-------------------------|-------------------------|-------------------------|
|-------------------------|-------------------------|-------------------------|

Solo (b)
|-------------------------|
|-------------------------|
|-------------------------|
|-2====-----2-5==---4-5-4-|
|-------------------------|
|-------------------------|
|                         |
|                         |
|-------------------------|
|-------------------------|
|-------------4==---2-4-2-|
|-5====-----5-------------|
|-------------------------|
|-------------------------|

Solo a agayn

Riff 1 agayn
Riff 3 agayn
Riff 4 agayn (twice)

Riff 3 agayn

Fill 3 (end of song):
|----------|
|----------|
|-9===\\\\-|
|-9===\\\\-|
|-7===\\\\-|
|----------|
            
Submit corrections

comments powered by Disqus
↑ Back to top | After Forever Tabs for Zenith. Lyrics for acoustic guitar and electric guitar. Tablatures and chords are parodies/interpretations of the original songs. You may use it for private study, scholarship, research or language learning purposes only