» » »

Strong Tabs (ver.1)

Artists:  A B C D E F G H I J K L M N O P Q R S T U V W X Y Z # 

Strong Tabs (ver.1)

After Forever
Rating:
0/5 (0 votes)

Tabs too difficult? Try these video lessons and learn fast.
                                    After forever – Strong solo



Tuning:Std

e|---------------------------------------------------------------------------|
B|---------------------------------------------------------------------------|
G|-------------15—14v-----------14b15r14-----------15—14v---------------7v---|
D|--------------------15—17v-------------15/17v-----------15-17v---8-10------|
A|---2/14\2------------------------------------------------------------------|
E|---2/14\2------------------------------------------------------------------|


e|-------------------------------------------------------------|
B|-----------------------------------------18b20-18b20-r18-16--|
G|----15—14v-----------15b17-r15-14\12v------------------------|
D|-----------15/17v--------------------------------------------|
A|-------------------------------------------------------------|
E|-------------------------------------------------------------|

E|--------------------------------15-15b16r15----------|
B|--15h16p15h16p15h16p15----------------------18v\-----|
G|-----------------------17--15------------------------|
D|-----------------------------------------------------|
A|-----------------------------------------------------|
E|-----------------------------------------------------|

e|----------------------------------------14v----13--14--------|
B|------------14v----13—-14\11v----13h14-----------------16v---|
G|----12--13---------------------------------------------------|
D|-------------------------------------------------------------|
A|-------------------------------------------------------------|
E|-------------------------------------------------------------|

e|-------13h14-14b16---r15vvvvvvvv-------|
B|----16---------------------------------|
G|---------------------------------------|
D|---------------------------------------|
A|---------------------------------------|
E|---------------------------------------|

Please rate n comment

| /  slide up
| \  slide down
| h  hammer-on
| p  pull-off
| ~  let ring
| +  harmonic
| x  Mute note
| v  vibrato
            
Tabs too difficult? Try these video lessons and learn fast.




comments powered by Disqus
↑ Back to top | Tablatures and chords are parodies/interpretations of the original songs. You may use it for private study, scholarship, research or language learning purposes only