» » »

My Pledge Allegiance Tabs (ver.1)

Artists:  A B C D E F G H I J K L M N O P Q R S T U V W X Y Z # 

My Pledge Allegiance Tabs (ver.1)

After Forever
Rating:
0/5 (0 votes)

Hard to play? Try these video lessons and learn fast.
                Band:  After Forever

Copyrighted by:  Transmission Records (bankrupt)
Version 1.0 - 2001
Version 1.1 - 2003 (limited edition)


Note:
The double Sander name is correct.

Note:
Tuning is custom E
e|
B|
G|
D|
A|
E|

Note:
\  = slide down
=  = let ring
.  = palm mute
h  = hammer on
p  = pull off
[first time not played]

The song starts with a Sitar intro

Riff 1:
  Sander Left Guitar
|----------------------|----------------------|----------------------|
|-------5=--4h5p4------|-------5=--4h5p4------|-------5=--4h5p4------|
|-----------------5=-4-|-----------------5=-4-|-----------------5=-4-|
|----------------------|----------------------|----------------------|
|-2-2-2----------------|-2-2-2----------------|-2-2-2----------------|
|-0-0-0----------------|-0-0-0----------------|-0-0-0----------------|
| . . .                | . . .                | . . .                |
|                      |                      |                      |
| Sander Right Guitar  |                      |                      |
|----------------------|----------------------|----------------------|
|----------------------|----------------------|----------------------|
|----------------------|----------------------|----------------------|
|------[2=--1h2p1-----]|------[2=--1h2p1-----]|------[2=--1h2p1-----]|
|-2-2-2[----------3=-2]|-2-2-2[----------3=-2]|-2-2-2[----------3=-2]|
|-0-0-0----------------|-0-0-0----------------|-0-0-0----------------|
  . . .                  . . .                  . . .                 

End of Riff 1:
  Sander Left Guitar
|----------------------|
|----------------------|
|-2-4-5=--4--2---------|
|--------------5=--4=--|
|----------------------|
|----------------------|
|                      |
| Sander Right Guitar  |
|----------------------|
|----------------------|
|----------------------|
|----------------------|
|-0-2-3=--2--0---------|
|--------------3=--2=--|

Riff 2:
|---------------------------|---------------------------|
|---------------------------|---------------------------|
|---------------------------|---------------------------|
|---------------------------|---------------------------|
|--------------------222222-|-0-0-0-333333--------------|
|-0-0-0-000000-0-0-0--------|--------------3-3-3-111111-|
  . . . ...... . . . ......   . . . ...... . . . ......  

|---------------------------|---------------------------|
|---------------------------|---------------------------|
|---------------------------|---------------------------|
|---------------------------|---------------------------|
|--------------------222222-|-0-0-0-333333--------------|
|-0-0-0-000000-0-0-0--------|--------------3-3-3-111111-|
  . . . ...... . . . ......   . . . ...... . . . ......  

Riff 3:
|------------------|-------------------|------------------|-------------------|
|------------------|-------------------|------------------|-------------------|
|------------------|-------------------|------------------|-------------------|
|------------------|-----------3=---3=-|------------------|-----------3=---3=-|
|-22-222-2-222-222-|---2-2-22-23=-223=-|-22-222-2-222-222-|---2-2-22-23=-223=-|
|-00-000-0-000-000-|---0-0-00-01=-001=-|-00-000-0-000-000-|---0-0-00-01=-001=-|
  .. ... . ... ...     . . .. .   ..     .. ... . ... ...     . . .. .   ..   

|------------------|-------------------|------------------|-------------------|
|------------------|-------------------|------------------|-------------------|
|------------------|-------------------|------------------|-------------------|
|------------------|-----------3=---3=-|------------------|-----------3=---3=-|
|-22-222-2-222-222-|---2-2-22-23=-223=-|-55-555-5-555-555-|---6-6-63-33=-333=-|
|-00-000-0-000-000-|---0-0-00-01=-001=-|-33-333-3-333-333-|---4-4-41-11=-111=-|
  .. ... . ... ...     . . .. .   ..     .. ... . ... ...     . . .. .   .. 

Riff 3' (both guitars) with verse 1:
|------------------|-------------------|------------------|-------------------|
|------------------|-------------------|------------------|-------------------|
|------------------|-------------------|------------------|-------------------|
|------------------|-----------3=---3=-|------------------|-----------3=---3=-|
|------------------|---2-2-22-23=-223=-|------------------|---2-2-22-23=-223=-|
|------------------|---0-0-00-01=-001=-|------------------|---0-0-00-01=-001=-|
                       . . .. .   ..                          . . .. .   ..

|------------------|-------------------|------------------|-------------------|
|------------------|-------------------|------------------|-------------------|
|------------------|-------------------|------------------|-------------------|
|------------------|-----------3=---3=-|------------------|-----------3=---3=-|
|------------------|---2-2-22-23=-223=-|-55-555-5-555-555-|---6-6-63-33=-333=-|
|------------------|---0-0-00-01=-001=-|-33-333-3-333-333-|---4-4-41-11=-111=-|
                       . . .. .   ..     .. ... . ... ...     . . .. .   ..     

Riff 4a (twice):
  Sander Left Guitar
|--------------|---------------|----------------|-------12==\\\-|
|--------------|---------------|----------------|---------------|
|--------------|---------------|----------------|---------------|
|--------------|---------------|----------------|---------------|
|-2------2-----|--2-----2------|-2--22--2----22-|-2---2---------|
|-0------0-----|--0-----0------|-0--00--0----00-|-0---0---------|
| .      .     |  .     .      | .  ..  .    .. | .   .         |
|              |               |                |               |
| Sander Right Guitar          |                |               |
|--------------|---------------|----------------|---------------|
|--------------|---------------|----------------|---------------|
|--------------|---------------|----------------|---------------|
|---9h10-7=--9-|-----9---------|---9h10-7h9-6h9-|---------------|
|--------------|-10-----7==----|----------------|-8------7==----|
|-0------------|---------------|-0--------------|----10---------|
  .                              .                               

Riff 4b:
  Sander Left Guitar
|--------------|---------------|----------------|---------------|
|--------------|---------------|----------------|---------------|
|--------------|---------------|----------------|---------------|
|--------------|---------------|----------------|---------------|
|-2--22--2--22-|--2--22-2--22--|-2--22--2---22--|-2--22--2--22--|
|-0--00--0--00-|--0--00-0--00--|-0--00--0---00--|-0--00--0--00--|
| .  ..  .  .. |  .  .. .  ..  | .  ..  .   ..  | .  ..  .  ..  |
|              |               |                |               |
| Sander Right Guitar          |                |               |
|--------------|---------------|----------------|---------------|
|--------------|---------------|----------------|---------------|
|--------------|---------------|----------------|---------------|
|---9h10-7=--9-|-----9---------|---9h10-7h9-6h9-|---------------|
|--------------|-10-----7==----|----------------|-8------7==----|
|-0------------|---------------|-0--------------|----10---------|
  .                              .                               

Riff 4c:
  Sander Left Guitar
|--------------|---------------|------------------|---------------------|
|--------------|---------------|------------------|---------------------|
|--------------|---------------|-5====------------|---------------------|
|-7===============-------------|-5====------------|-9p5--4h5--7p5--4h5--|
|-7===============-------------|-3====-------3--3-----------------------|
|-5===============-------------|------------------|---------------------|
|              |               |             .  . |                     |
|              |               |                  |                     |
| Sander Right Guitar          |                  |                     |
|--------------|---------------|------------------|---------------------|
|--------------|---------------|------------------|---------------------|
|--------------|---------------|------------------|-9---------7---------|
|---9h10-7=--9-|-----9---------|---9h10-7h10-9h10-|---10-9-10---10-9-10-|
|--------------|-10-----7==----|------------------|---------------------|
|-0------------|---------------|-0----------------|---------------------|
  .                              .                                       

Riff 5:
|----------------------------|----------------------------|
|----------------------------|----------------------------|
|----------------------------|----------------------------|
|----------------------------|----------------------------|
|-33333-33333-33333-22222222-|-33333-33333-55555-55553333-|
|----------------------------|----------------------------|
  ..... ..... ..... ........   ..... ..... ..... ........  

|----------------------------|----------------------------|
|----------------------------|----------------------------|
|----------------------------|----------------------------|
|----------------------------|----------------------------|
|----------------------------|----------------------------|
|-00000-00000-00000-00000000-|-00000-00000-00000-00000000-|
  ..... ..... ..... ........   ..... ..... ..... ........  

|----------------------------|----------------------------|
|----------------------------|----------------------------|
|----------------------------|----------------------------|
|----------------------------|----------------------------|
|-33333-33333-33333-22222222-|-33333-33333-55555-55557777-|
|----------------------------|----------------------------|
  ..... ..... ..... ........   ..... ..... ..... ........  

|----------------------------|----------------------------|
|----------------------------|----------------------------|
|----------------------------|----------------------------|
|----------------------------|----------------------------|
|----------------------------|-22222-22222-22222-22222222-|
|-00000-00000-00000-00000000-|----------------------------|
  ..... ..... ..... ........   ..... ..... ..... ........  

|----------------------------|----------------------------|
|----------------------------|----------------------------|
|----------------------------|----------------------------|
|----------------------------|----------------------------|
|----------------------------|----------------------------|
|-33333-33333-33333-33333333-|-22222-22222-22222-22222222-|
  ..... ..... ..... ........   ..... ..... ..... ........  

Strings Riff (no guitar)

Riff 1 agayn
Riff 2 agayn
Riff 4 agayn
Riff 5 agayn

Riff 6 (twice):
|----------------------------|----------------------------|
|----------------------------|----------------------------|
|----------------------------|----------------------------|
|----------------------------|----------------------------|
|----------------------------|----------------------------|
|-00000-00000-00000-00000000-|-00000-00000-00000-00000000-|
  ..... ..... ..... ........   ..... ..... ..... ........  

Ending on:
|-----------------------------|
|-----------------------------|
|-----------------------------|
|-2===========----------------|
|-2===========----------------|
|-0===========----------------|
            
Hard to play? Try these video lessons and learn fast. | Correct




comments powered by Disqus
↑ Back to top | Tablatures and chords are parodies/interpretations of the original songs. You may use it for private study, scholarship, research or language learning purposes only