» » »

After Forever, Monolith Of Doubt Bass tabs (ver.2)

Artists:  A B C D E F G H I J K L M N O P Q R S T U V W X Y Z # 

Monolith Of Doubt Bass tabs (ver.2)

After Forever Tabs
 Rating:
4/5 (4 votes)
Monolith Of Doubt lessons Tabs too difficult? Try these video lessons and learn fast
1
                Im proud i can give you the first After Forever bass tab...It such a nice song of a good Dutch Gothrock band...
Please tell me what you think about it...Vote for this tab (go easy on me ,cause its only my third tab ever..)
Enjoy!!

Intro 
G-----------
D-----------
A-5--------
D----8----7

Main Riff
G------------------------------------------------------------------------------ 2x
D-0-0-0-0-0-0-0-0-0-0-0-0-0-0-0----------------------------------------
A--------------------------------------1-1-1-1-1-1-1-1-0-0-0-0-0-0-0-0-
D------------------------------------------------------------------------------

Verse
G-------------------------------------------------------------------------------
D-------------------------------------------------------------------------------
A3-3----3-3---3-3-5-5----5-5-5--3-3---3-3-3------------------3--3------
D----------------------------------------------------7-7---7-7-7----------5-5

Main Riff 2x

Verse

Drummriff (no bass)

Bridge
G---------------------------------------------------------------
D---------------------------------------------------------------
A-------------------------------------------8--6—3----3-3-3
D5-6-5-6-5-6-5-6---8-5-3-0-8-5-3-0----------------------


G---------------------------------------------------------
D---------------------------------------------------------
A5----------------5—7---------------------------------
D ----8—7—10------------8-10-2-2-7-6-7-7-7-9-7

G------------------------------------------
D------------------------------------------
A5-7--------------------------------------
D------8-10-2-2-7-7-7-7-7-8-7-7--7-7

G---------------------------------------x4
D---------------------------------------
A---------------------------------------
D7-7-5-5-3-3-2-2-7-7-5-5-3-3-2-2

G--------------------------------------------------------------x2
D--------------------------------------------------------------
A--------------------------------------------------------------
D6-6-6-6-6-6-6-6-6-6-6-6-7-6-6-6-6-6-6-6-6-6-6-6-7


G--------------------
D--------------------
A--------------------
D6---6-7-----6---7

Main Riff x4

G----------------------------------------------
D0-0-0-0-0-0-0-0-0-0-0-0-0-0-0-0-0-0-0
A----------------------------------------------
D-----------------------------------------------
            
Submit corrections

comments powered by Disqus
↑ Back to top | After Forever Bass for Monolith Of Doubt. Lyrics for acoustic guitar and electric guitar. 1 Tablatures and chords are parodies/interpretations of the original songs. You may use it for private study, scholarship, research or language learning purposes only