» » »

Monolith Of Doubt Bass tabs (ver.1)

Artists:  A B C D E F G H I J K L M N O P Q R S T U V W X Y Z # 

Monolith Of Doubt Bass tabs (ver.1)

After Forever
Rating:
0/5 (0 votes)

Hard to play? Try these video lessons and learn fast.
                0:00	Intro
|------|------|------|-----|-----|----|----|
|------|------|------|-----|-----|----|----|
|-5----|-1----|-0----|-----|-----|----|----|
|------|------|------|-----|-----|----|----|

0:07   Verse 1
||------------------|-----------------|-----------------|-----------------||
||o-----------------|-----------------|-----------------|----------------o||
||o-5-5-5-5-5-5-5-5-|-5-5-5-5-5-5-5-5-|-1-1-1-1-1-1-1-1-|-0-0-0-0-0-0-0-0o||
||------------------|-----------------|-----------------|-----------------||

0:21	Fill
|---------|------|------|------|----------|
|---------|------|------|------|-3--------|
|--3------|--5---|--3---|--5---|---3-4----|
|---------|------|------|------|----------|

0:39 Verse 1 x2
0:54 Fill 

1:12	Riff 1 	(tremolo?)
|------------------------------------|
|------------------------------------|
|-5...-------------------------------|
|------------------------------------|

1:26
|---------------|
|o-------------o|
|o-------------o|
|----3-4--3-----|

1:33
|------------------------------------|
|------------------------------------|
|-5...-------------------------------|
|------------------------------------|

1:40
|---------------|
|----3--1-------|
|----------3----|
|---------------|

|---------------|
|---------------|
|-------3-------|
|---------------|

1:49
|---------------|---------------|---------------|---------------|
|-------0-------|---------------|---------------|---------------|
|---------------|-------1-------|-------0-------|---3----2----0-|
|---------------|---------------|---------------|---------------|

1:
|---------------|---------------|---------------|---------------|
|--0-----0-3-2--|------------0--|----3----2-----|-------0-------|
|---------------|--1-----1-3----|---------------|---------------|
|---------------|---------------|---------------|---------------|

|---------------|---------------|---------------|
|---------------|---------------|---------------|
|-------1-------|-------0-------|---3----2----0-|
|---------------|---------------|---------------|

|---------------|---------------|---------------|---------------|---------------|
|--0-----0-3-2--|---------------|----3------2---|---0-----0-1---|---0-----0-1---|
|---------------|-------1-------|---------------|---------------|---------------|
|---------------|---------------|---------------|---------------|---------------|

2:08
|-----------------|-----------------|-----------------|-----------------|
|o----------------|-----------------|-----------------|----------------o|
|o-0-0-0-0-0-0-0-0|-0-0-0-0-0-0-1-1-|-0-0-0-0-0-0-0-0-|-1-1-1-1-1-1-1-1o|
|-----------------|-----------------|-----------------|-----------------|

|-----------------|-------------1-1-|-----------------|-1-1-1-1-1-1-1-1-|
|o5-5-5-5-5-5-5-5-|-5-5-5-5-5-5-----|-5-5-5-5-5-5-5-5-|----------------o|
|o----------------|-----------------|-----------------|----------------o|
|-----------------|-----------------|-----------------|-----------------|

|-----------------|-----------------|-----------------|-----------------|
|-----------------|-----------------|-----------------|-----------------|
|--5--------------|-5-5-5-5-5-5-6-6-|--5--------------|--6--------------|
|-----------------|-----------------|-----------------|-----------------|

Verse 1  x4

|-----------------|-----------------|-----------------|
|-----------------|-----------------|-----------------|
|-5-5-5-5-5-5-6-6-|-5-5-5-5-5-5-6-6-|--------5--------|
|-----------------|-----------------|-----------------|
            
Hard to play? Try these video lessons and learn fast. | Correct




comments powered by Disqus
↑ Back to top | Tablatures and chords are parodies/interpretations of the original songs. You may use it for private study, scholarship, research or language learning purposes only