>
 >
Inimical Chimera

Inimical Chimera Guitar Tabs

After Forever - Inimical Chimera chords, tabs, tablatures, lyrics

Guitar lessons | Add/correct | Request | Top 50 tabs Artists:  A B C D E F G H I J K L M N O P Q R S T U V W X Y Z 0-9

Inimical Chimera Guitar Tabs – After Forever

CD, Sheet music, Poster

Do you like Inimical Chimera? Share with your friends now
Tabs
Hope you like it enjoy
(/..Distortion)
e|---------------------------------------------------------|
B|---------------------------------------------------------|
G|---------------------------------------------------------|
D|---------------------------------------------------------|
A|-7----7----8--7----10----8--7----7----8---11----10----8--|
E|--0-0--0-0--0--0-0---0-0--0--0-0--0-0---0---0-0---0-0--0-|

    PM-| PM-| -  PM-|  PM-| -  PM-| PM-| -                   PM--|
e|---------------------------------------------------------|-------|
B|--------------------------------------------1st time-----|-2nd---|
G|---------------------------------------------------------|---time|
D|---------------------------------------------------------|-------|
A|-7----7----8--7----10----8--7----7----8--7h8-5h7-3h5-2h3-|-3-3-3-|
E|--0-0--0-0--0--0-0---0-0--0--0-0--0-0--0-----------------|-1-1-1-|


-RIFF 2

(play this riff 2 times)

e|---------------------------|  play 3x then  e|---------------------------|
B|---------------------------|		      B|---------------------------|
G|--------------------4---3--|		      G|---------------------------|
D|-2-2-2-2-2-2-2-2--5---4----|		      D|-2-2-2-2-2-2-2-2---5--4----|
A|---------------------------| 		      A|---------------------------|
E|---------------------------|  	      E|---------------------------|


-RIFF 1
(Play this riff once again, same as in the beginning).


-RIFF 3
Play 16x

[In the imperium with emerald valleys]
[There where endlessness encircles you]

    PM---------|
e|------------------| After 8 times some variations, but
B|------------------| I can't figure them out.
G|------------------|
D|------------------|
A|-2----------------|
E|-0-0-0-0-0-0-0----|


-RIFF 4

(play this riff 4 times, 3th time: [A goddes lost her aureole]
			 4th time: [Created her own domain]

  PM-------------------|			  PM----------|
e|--------------------------| Play 3 times then e|-----------------|
B|--------------------------|			B|-----------------|
G|--------------------------|			G|-----------------|
D|--------------------------|			D|-----------------|
A|-2-2--2-2-2-2-2-2-2-2-2---|			A|-2--6--5--3------|
E|-0-0--0-0-0-0-0-0-0-0-0---|			E|-0--4--3--1------|


-RIFF 1

(Play this riff once again, same as in the beginning).


-KEYBOARD PART
Keyboard notes: B F# G A C G A A# A# C A# G A D
                B B E B C G G A A# G A# C A# G A D

For guitar (use effects to let it sound more like a keyboard):
Do some vibrato on each note.
				      [This valley of doom where I'm the token]
				      [She'll be throwing the dice this time]
e|-----------------------------------|-------------------------------------|
B|-----------------------------------|-------------------------------------|
G|-----------------------------------|------9-4-5--------------------------|
D|-/9--4-5-7/10~-5-7-8-8/10\8-5-7----|-/9-9-------5-5-7-8-5-8/10\8-5-7-----|
A|--------------------------------5--|---------------------------------5---|
E|-----------------------------------|-------------------------------------|


-RIFF 4

(play this riff 4 times, 1st time: [A goddes lost her aureole]
			 2nd time: [Evil took over her godless soul]
			 3rd time: [Swallowing you in the rivers of blood]
			 4th time: [Morbid games played with you, you token]


-RIFF 5A
Play 4x
(Just hit the B-string very fast and then touch the frets).

    B (hit chord)		      B (hit chord)  PM------------|
e|------------------------------------------------|------------------------------|
B|-12-0-0-7-0-0-8-0-0-10-0-0-12-0-0-7-0-0-8-0-0-5-|------------------------------|
G|------------------------------------------------|------------------------------|
D|------------------------------------------------|-----------------4-5---4---3--|
A|------------------------------------------------|-2-2-2-2-2-2-2-2-----2---1----|
E|------------------------------------------------|------------------------------|


-RIFF 5B
Play 4x

e|-12-0-0-10-0-0-8-0-0-10-0-0-8-0-0-7--|-12-0-0-7-0-0-8-0-0-10-0-0-8-0-0-7--|
B|-------------------------------------|------------------------------------|
G|-------------------------------------|------------------------------------|
D|-------------------------------------|------------------------------------|
A|-------------------------------------|------------------------------------|
E|-------------------------------------|------------------------------------|


-RIFF 5A
Play 4x.

-RIFF 6

[Clouds are roaming around the pale moon]

     PM-|  PM-|  PM-|  PM-|  PM-|  PM-|  PM-|  PM-|
e|----------------------------------------------------| Play this part 2 
times.
B|----------------------------------------------------| End the 2nd time
G|----------------------------------------------------| with a big slide
D|----------------------------------------------------| from high to low (E)
A|-2-----2-----2-----2-----2-----2-----2-----2--------|
E|-0-0-0-0-0-0-0-0-0-0-0-0-0-0-0-0-0-0-0-0-0-0-0-0----|

Then this part:

[An inimical gloom covers the valleys]

    PM-|  PM-|  PM-|   PM-|  PM-|  PM-|  PM-|  PM-|
e|----------------------------------------------------| Play this part 2 
times.
B|----------------------------------------------------| End the 2nd time
G|----------------------------------------------------| with a big slide
D|-5-----5-----5-----5-----6-----6-----6-----6--------| from high to low (E)
A|-3-3-3-3-3-3-3-3-3-3-3-3-4-4-4-4-4-4-4-4-4-4-4-4----|
E|----------------------------------------------------|

[I'am the cephalic empress of this doomed celestial empire]

     PM-|  PM-|  PM-|  PM-|  PM-|  PM-|  PM-|  PM-|
e|----------------------------------------------------|
B|----------------------------------------------------|
G|----------------------------------------------------|
D|----------------------------------------------------|
A|-2-----2-----2-----2-----2-----2-----2-----2--------|
E|-0-0-0-0-0-0-0-0-0-0-0-0-0-0-0-0-0-0-0-0-0-0-0-0----|

[Hear the orcherstra of death]

     PM-|  PM-|  PM-|  PM-|  PM-|  PM-|  PM-|  PM-|
e|----------------------------------------------------|
B|----------------------------------------------------|
G|----------------------------------------------------|
D|----------------------------------------------------|
A|-2-----2-----2-----2-----7-----7-----7-----7--------|
E|-0-0-0-0-0-0-0-0-0-0-0-0-5-5-5-5-5-5-5-5-5-5-5-5----|


-RIFF 7

(play this riff 2 times)

[SCREAM!!!]

GTR 1

   PM------------------------------------------------|
e|-----------------|-----------------|-----------------|------------|
B|-----------------|-----------------|-----------------|------------|
G|-----------------|-----------------|-----------------|-5-3--------|
D|-----------------|-----------------|-----------------|-----6-5----|
A|-3-3-3-3-3-3-3-3-|-3-3-3-3-3-3-3-3-|-3-3-3-3-3-3-3-3-|------------|
E|-----------------|-----------------|-----------------|------------|

GTR 2

Play this during the PM part of GTR 1

e|---------------------------|
B|---------------------------|
G|-------------------5-------|
D|-5-5-6-5-8-6-5-6-5---8-6-5-|
A|---------------------------|
E|---------------------------|

GTR 1

  PM--------------------------------------------------|
e|-----------------|-----------------|-----------------|------------|
B|-----------------|-----------------|-----------------|------------|
G|-----------------|-----------------|-----------------|-4-2--------|
D|-----------------|-----------------|-----------------|-----5-4----|
A|-2-2-2-2-2-2-2-2-|-2-2-2-2-2-2-2-2-|-2-2-2-2-2-2-2-2-|------------|
E|-----------------|-----------------|-----------------|------------|

GTR 2

Play this during the PM part of GTR 1

e|---------------------------|
B|---------------------------|
G|-----------------4---------|
D|-4-4-5-4-7-5-4-5---7-5-4---|
A|---------------------------|
E|---------------------------|

  PM--------------------------------------------------|
e|-----------------|-----------------|-----------------|------------|
B|-----------------|-----------------|-----------------|------------|
G|-----------------|-----------------|-----------------|-5-3--------|
D|-----------------|-----------------|-----------------|-----6-5----|
A|-3-3-3-3-3-3-3-3-|-3-3-3-3-3-3-3-3-|-3-3-3-3-3-3-3-3-|------------|
E|-----------------|-----------------|-----------------|------------|

GTR 2

Play this during the PM part of GTR 1

e|---------------------------|
B|---------------------------|
G|-------------------5-------|
D|-5-5-6-5-8-6-5-6-5---8-6-5-|
A|---------------------------|
E|---------------------------|


  PM---------------------------|
e|----------------------------------| The second time:
B|----------------------------------| last chord, let ring shortly,
G|----------------------------------| then mute.
D|----------------------------------|
A|-2-2-2-2-2-2-2-2-2-2-2-2-2-2-2----|
E|-0-0-0-0-0-0-0-0-0-0-0-0-0-0-0----|
FreakMen





Comments


Popular After Forever tabs & chords
Between Love And Fire Bass Tabs
Boundaries Are Open Bass Tabs
Monolith Of Doubt 1 Bass Tabs
The Evil That Men Do Drum Tabs
Attendance Intro Tabs
Come Tabs
Digital Deceit Intro Tabs
Follow In The Cry Tabs
Strong Tabs
Empty Memories Ukulele


Song lyrics



↑ Back to top | Tablatures and chords are parodies/interpretations of the original songs. You may use it for private study, scholarship, research or language learning purposes only
© 2014 AZChords.com Contact us | Privacy policy | DMCA | Add/correct tabs | Request tabs | Top 50 tabs