>
 >
Emphasis

Emphasis Bass Tabs

After Forever - Emphasis chords, tabs, tablatures, lyrics

Guitar lessons | Add/correct | Request | Top 50 tabs Artists:  A B C D E F G H I J K L M N O P Q R S T U V W X Y Z 0-9

Emphasis Bass Tabs – After Forever

CD, Sheet music, Poster

Do you like Emphasis? Share with your friends now
Bass Tabs
                                   Emphasis                                     


                                                                   After Forever
Bass



     W                   Q    S S S S S S S S S S S S  
F||-------------------|-------------------------------|
C||-------------------|-------------------------------|
G||-------------------|--0----0-0-0-0-0-0-0-0-0-0-0-0-|
D||-------------------|-------------------------------|


  Q    S S S S S S S S S S S S    Q    S S S S S S S S Q     
-------------------------------|----------------------------|
-------------------------------|----------------------------|
--0----0-0-0-0-0-0-0-0-0-0-0-0-|--0----0-0-0-0-0-0-0-0------|
-------------------------------|-----------------------3----|


  S S S S S S S S S S S S S S S S    Q    S S S S S S S S S S S S  
----------------------------------|-------------------------------|
----------------------------------|-------------------------------|
----------------------------------|-------------------------------|
--3-3-3-3-3-3-3-3-3-3-3-3-3-3-3-3-|--1----1-1-1-1-1-1-1-1-1-1-1-1-|


  S S S S S S S S S S S S S S S S    S S S S S S S S S S S S S S S S  
----------------------------------|----------------------------------|
----------------------------------|----------------------------------|
----------------------------------|--3-3-3-3-3-3-3-3-3-3-3-3-3-3-3-3-|
--1-1-1-1-1-1-1-1-1-1-1-1-1-1-1-1-|----------------------------------|


  S S S S S S S S S S S S S S S S    Q    S S S S S S S S S S S S  
----------------------------------|-------------------------------|
--2-2-2-2-2-2-2-2-2-2-2-2-2-2-2-2-|-------------------------------|
----------------------------------|--0----0-0-0-0-0-0-0-0-0-0-0-0-|
----------------------------------|-------------------------------|


  Q    S S S S S S S S S S S S    Q    S S S S S S S S Q     
-------------------------------|----------------------------|
-------------------------------|----------------------------|
--0----0-0-0-0-0-0-0-0-0-0-0-0-|--0----0-0-0-0-0-0-0-0------|
-------------------------------|-----------------------3----|


  S S S S S S S S S S S S S S S S    Q    S S S S S S S S S S S S  
----------------------------------|-------------------------------|
----------------------------------|-------------------------------|
----------------------------------|-------------------------------|
--3-3-3-3-3-3-3-3-3-3-3-3-3-3-3-3-|--1----1-1-1-1-1-1-1-1-1-1-1-1-|


  S S S S S S S S S S S S S S S S    S S S S S S S S S S S S S S S S  
----------------------------------|----------------------------------|
----------------------------------|----------------------------------|
----------------------------------|--3-3-3-3-3-3-3-3-3-3-3-3-3-3-3-3-|
--1-1-1-1-1-1-1-1-1-1-1-1-1-1-1-1-|----------------------------------|


  S S S S S S S S S S S S S S S S    S S E  E  S S E  E  S S E   
----------------------------------|-----------------------------|
--2-2-2-2---2-2---2-2-2-2---2-2---|--0-0-0-----0-0-0-----0-0-0--|
----------------------------------|-----------------------------|
----------------------------------|-----------------------------|


  E  S S E  E  E  E  E  E     S S E  E  S S E  E  S S E   
---------------------------|-----------------------------|
-----0-0-0-----0--3--2-----|-----------------------------|
------------------------3--|--0-0-0-----0-0-0-----0-0-0--|
---------------------------|-----------------------------|


  E  S S E  E  S S E  E  E     S S E  E  S S E  E  S S E   
----------------------------|-----------------------------|
----------------------------|--0-0-0-----0-0-0-----0-0-0--|
-----0-0-0-----0-0-0-----3--|-----------------------------|
----------------------2-----|-----------------------------|


  E  S S E  E  E  E  E  E     S S E  E  S S E  E  S S E   
---------------------------|-----------------------------|
-----0-0-0-----0--3--2-----|-----------------------------|
------------------------3--|--0-0-0-----0-0-0-----0-0-0--|
---------------------------|-----------------------------|


  E  S S E  E  S S E  E  E     S S E  E  S S E  E  S S E   
----------------------------|-----------------------------|
----------------------------|--0-0-0-----0-0-0-----0-0-0--|
-----0-0-0-----0-0-0-----3--|-----------------------------|
----------------------2-----|-----------------------------|


  E  S S E  E  E  E  E  E     S S E  E  S S E  E  S S E   
---------------------------|-----------------------------|
-----0-0-0-----0--3--2-----|-----------------------------|
------------------------3--|--0-0-0-----0-0-0-----0-0-0--|
---------------------------|-----------------------------|


  E  S S E  E  S S E  E  E     S S E  E  S S E  E  S S E   
----------------------------|-----------------------------|
----------------------------|--0-0-0-----0-0-0-----0-0-0--|
-----0-0-0-----0-0-0-----3--|-----------------------------|
----------------------2-----|-----------------------------|


  E  S S E  E  E  E  E  E     S S E  E  S S E  E  S S E   
---------------------------|-----------------------------|
-----0-0-0-----0--3--2-----|-----------------------------|
------------------------3--|--0-0-0-----0-0-0-----0-0-0--|
---------------------------|-----------------------------|


  E  S S E  E  S S E  E  E     Q    Q    Q    Q       E  E  S E.  E  E  Q     
----------------------------|----------------------|-------------------------|
----------------------------|----------------------|-------------------------|
-----0-0-0-----0-0-0-----3--|----------------------|-------------------------|
----------------------2-----|--6----6----6----3----|--L--3--3-3---3--3--3----|


  S S S S S S S S S S S S S S S S    S S S S S S S S S S S S S S S S  
----------------------------------|----------------------------------|
--0-0-0-0-0-0-0-0-0-0-0-0-0-0-0-0-|--0-0-0-0-0-0-0-0-0-0-0-0-0-0-0-0-|
----------------------------------|----------------------------------|
----------------------------------|----------------------------------|


  Q    Q    Q    Q       E  E  S E.  E  E  Q     
----------------------|-------------------------|
----------------------|-------------------------|
----------------------|-------------------------|
--6----6----6----3----|--L--3--3-3---3--3--3----|


  S S S S S S S S S S S S S S S S    S S S S S S S S S S S S S S S S  
----------------------------------|----------------------------------|
--0-0-0-0-0-0-0-0-0-0-0-0-0-0-0-0-|--0-0-0-0-0-0-0-0-0-0-0-0-0-0-0-0-|
----------------------------------|----------------------------------|
----------------------------------|----------------------------------|


  Q    S S S S S S S S S S S S    Q    S S S S S S S S S S S S  
-------------------------------|-------------------------------|
-------------------------------|-------------------------------|
--0----0-0-0-0-0-0-0-0-0-0-0-0-|--0----0-0-0-0-0-0-0-0-0-0-0-0-|
-------------------------------|-------------------------------|


  Q    S S S S S S S S Q       S S S S S S S S S S S S S S S S  
----------------------------|----------------------------------|
----------------------------|----------------------------------|
--0----0-0-0-0-0-0-0-0------|----------------------------------|
-----------------------3----|--3-3-3-3-3-3-3-3-3-3-3-3-3-3-3-3-|


  Q    S S S S S S S S S S S S    S S S S S S S S S S S S S S S S  
-------------------------------|----------------------------------|
-------------------------------|----------------------------------|
-------------------------------|----------------------------------|
--1----1-1-1-1-1-1-1-1-1-1-1-1-|--1-1-1-1-1-1-1-1-1-1-1-1-1-1-1-1-|


  S S S S S S S S S S S S S S S S    S S S S S S S S S S S S S S S S  
----------------------------------|----------------------------------|
----------------------------------|--2-2-2-2---2-2---2-2-2-2---2-2---|
--3-3-3-3-3-3-3-3-3-3-3-3-3-3-3-3-|----------------------------------|
----------------------------------|----------------------------------|


  S S E  E  S S E  E  S S E     E  S S E  E  E  E  E  E   
-----------------------------|---------------------------|
--0-0-0-----0-0-0-----0-0-0--|-----0-0-0-----0--3--2-----|
-----------------------------|------------------------3--|
-----------------------------|---------------------------|


  S S E  E  S S E  E  S S E     E  S S E  E  S S E  E  E   
-----------------------------|----------------------------|
-----------------------------|----------------------------|
--0-0-0-----0-0-0-----0-0-0--|-----0-0-0-----0-0-0-----3--|
-----------------------------|----------------------2-----|


  S S E  E  S S E  E  S S E     E  S S E  E  E  E  E  E   
-----------------------------|---------------------------|
--0-0-0-----0-0-0-----0-0-0--|-----0-0-0-----0--3--2-----|
-----------------------------|------------------------3--|
-----------------------------|---------------------------|


  S S E  E  S S E  E  S S E     E  S S E  E  S S E  E  E   
-----------------------------|----------------------------|
-----------------------------|----------------------------|
--0-0-0-----0-0-0-----0-0-0--|-----0-0-0-----0-0-0-----3--|
-----------------------------|----------------------2-----|


  Q    Q    Q    Q       E  E  S E.  E  E  Q     
----------------------|-------------------------|
----------------------|-------------------------|
----------------------|-------------------------|
--6----6----6----3----|--L--3--3-3---3--3--3----|


  S S S S S S S S S S S S S S S S    S S S S S S S S S S S S S S S S  
----------------------------------|----------------------------------|
--0-0-0-0-0-0-0-0-0-0-0-0-0-0-0-0-|--0-0-0-0-0-0-0-0-0-0-0-0-0-0-0-0-|
----------------------------------|----------------------------------|
----------------------------------|----------------------------------|


  Q    Q    Q    Q       E  E  S E.  E  E  Q     
----------------------|-------------------------|
----------------------|-------------------------|
----------------------|-------------------------|
--6----6----6----3----|--L--3--3-3---3--3--3----|


  S S S S S S S S S S S S S S S S    W                   E.  E.  E  E.  E.  E   
----------------------------------|-------------------|------------------------|
--0-0-0-0-0-0-0-0-0-0-0-0-0-0-0-0-|-------------------|------------------------|
----------------------------------|-------------------|------------------------|
----------------------------------|-------------------|--2---2---2--2---2---2--|


  E.  E.  E  E.  E.  E     E.  E.  E  E.  E.  E     E.  E.  E  E.  E.  E   
------------------------|------------------------|------------------------|
------------------------|------------------------|------------------------|
------------------------|------------------------|------------------------|
--2---2---2--2---2---2--|--2---2---2--2---2---2--|--2---2---2--2---2---2--|


  E.  E.  E  E.  E.  E     E.  E.  E  E.  E.  E     E.  E.  E  E.  E.  E   
------------------------|------------------------|------------------------|
------------------------|------------------------|------------------------|
------------------------|------------------------|------------------------|
--2---2---2--2---2---2--|--2---2---2--2---2---2--|--2---2---2--2---2---2--|


  E.  E.  E  E.  E.  E     E.  E.  E  E.  E.  E     E.  E.  E  E.  E.  E   
------------------------|------------------------|------------------------|
------------------------|------------------------|------------------------|
------------------------|------------------------|------------------------|
--2---2---2--2---2---2--|--2---2---2--2---2---2--|--2---2---2--2---2---2--|


  S S S S S S S S S S S S S S S S    S S S S S S S S S S S S S S S S  
----------------------------------|----------------------------------|
----------------------------------|----------------------------------|
--0-0-0-0-0-0-0-0-0-0-0-0-0-0-0-0-|--0-0-0-0-0-0-0-0-0-0-0-0-0-0-0-0-|
----------------------------------|----------------------------------|


  E.  E.  E  E.  E.  E     E.  E.  E  E.  E.  E   
------------------------|------------------------|
------------------------|------------------------|
------------------------|------------------------|
--2---2---2--2---2---2--|--2---2---2--2---2---2--|


  S S S S S S S S S S S S S S S S    S S S S S S S S S S S S S S S S  
----------------------------------|----------------------------------|
----------------------------------|----------------------------------|
--0-0-0-0-0-0-0-0-0-0-0-0-0-0-0-0-|--0-0-0-0-0-0-0-0-0-0-0-0-0-0-0-0-|
----------------------------------|----------------------------------|


  S S S S S S S S S S S S S S S S    S S S S S S S S S S S S S S S S  
----------------------------------|----------------------------------|
----------------------------------|----------------------------------|
----------------------------------|----------------------------------|
--4-4-4-4-4-4-4-4-4-4-4-4-4-4-4-4-|--4-4-4-4-4-4-4-4-4-4-4-4-4-4-4-4-|


  S S S S S S S S S S S S S S S S    S S S S S S S S S S S S S S S S  
----------------------------------|----------------------------------|
----------------------------------|----------------------------------|
--0-0-0-0-0-0-0-0-0-0-0-0-0-0-0-0-|--0-0-0-0-0-0-0-0-0-0-0-0-0-0-0-0-|
----------------------------------|----------------------------------|


  S S S S S S S S S S S S S S S S    S S S S S S S S S S S S S S S S  
----------------------------------|----------------------------------|
----------------------------------|----------------------------------|
--6-6-6-6-6-6-6-6-6-6-6-6-6-6-6-6-|--6-6-6-6-6-6-6-6-6-6-6-6-6-6-6-6-|
----------------------------------|----------------------------------|


  S S S S S S S S S S S S S S S S    S S S S S S S S S S S S S S S S  
----------------------------------|----------------------------------|
----------------------------------|----------------------------------|
--5-5-5-5-5-5-5-5-5-5-5-5-5-5-5-5-|--5-5-5-5-5-5-5-5-5-5-5-5-5-5-5-5-|
----------------------------------|----------------------------------|


  S S E  H.              W                   S S E  H.            
----------------------|-------------------|----------------------|
--0-0-0---------------|-------------------|--0-0-0---------------|
----------------------|-------------------|----------------------|
----------------------|-------------------|----------------------|


  S S E  Q    S S E  S S E     S S E  E  S S E  E  S S E   
----------------------------|-----------------------------|
--0-0-0-------0-0-0--0-0-0--|-----------------------------|
----------------------------|--0-0-0-----0-0-0-----0-0-0--|
----------------------------|-----------------------------|


  E  S S E  E  S S E  E  E     S S E  E  S S E  E  S S E   
----------------------------|-----------------------------|
----------------------------|--0-0-0-----0-0-0-----0-0-0--|
-----0-0-0-----0-0-0-----3--|-----------------------------|
----------------------2-----|-----------------------------|


  E  S S E  E  E  E  E  E     S S E  E  S S E  E  S S E   
---------------------------|-----------------------------|
-----0-0-0-----0--3--2-----|-----------------------------|
------------------------3--|--0-0-0-----0-0-0-----0-0-0--|
---------------------------|-----------------------------|


  E  S S E  E  S S E  E  E     Q    Q    Q    Q       E  E  S E.  E  E  Q     
----------------------------|----------------------|-------------------------|
----------------------------|----------------------|-------------------------|
-----0-0-0-----0-0-0-----3--|----------------------|-------------------------|
----------------------2-----|--6----6----6----3----|--L--3--3-3---3--3--3----|


  S S S S S S S S S S S S S S S S    S S S S S S S S S S S S S S S S  
----------------------------------|----------------------------------|
--0-0-0-0-0-0-0-0-0-0-0-0-0-0-0-0-|--0-0-0-0-0-0-0-0-0-0-0-0-0-0-0-0-|
----------------------------------|----------------------------------|
----------------------------------|----------------------------------|


  Q    Q    Q    Q       E  E  S E.  E  E  Q     
----------------------|-------------------------|
----------------------|-------------------------|
----------------------|-------------------------|
--6----6----6----3----|--L--3--3-3---3--3--3----|


  S S S S S S S S S S S S S S S S    S S S S S S S S S S S S S S S S  
----------------------------------|----------------------------------|
--0-0-0-0-0-0-0-0-0-0-0-0-0-0-0-0-|--0-0-0-0-0-0-0-0-0-0-0-0-0-0-0-0-|
----------------------------------|----------------------------------|
----------------------------------|----------------------------------|


  Q    S S S S S S S S S S S S    Q    S S S S S S S S S S S S  
-------------------------------|-------------------------------|
-------------------------------|-------------------------------|
--0----0-0-0-0-0-0-0-0-0-0-0-0-|--0----0-0-0-0-0-0-0-0-0-0-0-0-|
-------------------------------|-------------------------------|


  Q    S S S S S S S S Q       S S S S S S S S S S S S S S S S  
----------------------------|----------------------------------|
----------------------------|----------------------------------|
--0----0-0-0-0-0-0-0-0------|----------------------------------|
-----------------------3----|--3-3-3-3-3-3-3-3-3-3-3-3-3-3-3-3-|


  Q    S S S S S S S S S S S S    S S S S S S S S S S S S S S S S  
-------------------------------|----------------------------------|
-------------------------------|----------------------------------|
-------------------------------|----------------------------------|
--1----1-1-1-1-1-1-1-1-1-1-1-1-|--1-1-1-1-1-1-1-1-1-1-1-1-1-1-1-1-|


  S S S S S S S S S S S S S S S S    S S S S S S S S S S S S S S S S  
----------------------------------|----------------------------------|
----------------------------------|--2-2-2-2-2-2-2-2-2-2-2-2-2-2-2-2-|
--3-3-3-3-3-3-3-3-3-3-3-3-3-3-3-3-|----------------------------------|
----------------------------------|----------------------------------|


  Q    S S S S S S S S S S S S    Q    S S S S S S S S S S S S  
-------------------------------|-------------------------------|
-------------------------------|-------------------------------|
--0----0-0-0-0-0-0-0-0-0-0-0-0-|--0----0-0-0-0-0-0-0-0-0-0-0-0-|
-------------------------------|-------------------------------|


  Q    S S S S S S S S Q       S S S S S S S S S S S S S S S S  
----------------------------|----------------------------------|
----------------------------|----------------------------------|
--0----0-0-0-0-0-0-0-0------|----------------------------------|
-----------------------3----|--3-3-3-3-3-3-3-3-3-3-3-3-3-3-3-3-|


  Q    S S S S S S S S S S S S    S S S S S S S S S S S S S S S S  
-------------------------------|----------------------------------|
-------------------------------|----------------------------------|
-------------------------------|----------------------------------|
--1----1-1-1-1-1-1-1-1-1-1-1-1-|--1-1-1-1-1-1-1-1-1-1-1-1-1-1-1-1-|


  S S S S S S S S S S S S S S S S    S S S S S S S S S S S S S S S S  
----------------------------------|----------------------------------|
----------------------------------|--2-2-2-2-2-2-2-2-2-2-2-2-2-2-2-2-|
--3-3-3-3-3-3-3-3-3-3-3-3-3-3-3-3-|----------------------------------|
----------------------------------|----------------------------------|


  Q    S S S S S S S S S S S S    Q    S S S S S S S S S S S S  
-------------------------------|-------------------------------|
-------------------------------|-------------------------------|
--2----2-2-2-2-2-2-2-2-2-2-2-2-|--2----2-2-2-2-2-2-2-2-2-2-2-2-|
-------------------------------|-------------------------------|


  Q    S S S S S S S S Q       S S S S S S S S S S S S S S S S  
----------------------------|----------------------------------|
----------------------------|----------------------------------|
--2----2-2-2-2-2-2-2-2------|----------------------------------|
-----------------------5----|--5-5-5-5-5-5-5-5-5-5-5-5-5-5-5-5-|


  Q    S S S S S S S S S S S S    Q    S S S S S S S S S S S S  
-------------------------------|-------------------------------|
-------------------------------|-------------------------------|
-------------------------------|-------------------------------|
--3----3-3-3-3-3-3-3-3-3-3-3-3-|--3----3-3-3-3-3-3-3-3-3-3-3-3-|


  S S S S S S S S S S S S S S S S    S S S S S S S S S S S S S S S S  
----------------------------------|----------------------------------|
----------------------------------|----------------------------------|
--5-5-5-5-5-5-5-5-5-5-5-5-5-5-3-5-|----------------------------------|
----------------------------------|--2-2-2-2-2-2-2-2-2-2-2-2-2-2-2-2-|


  S S S S S S S S S S S S S S S S    S S S S S S S S S S S S S S S S  
----------------------------------|----------------------------------|
----------------------------------|----------------------------------|
--2-2-2-2-2-2-2-2-2-2-2-2-2-2-2-2-|--2-2-2-2-2-2-2-2-2-2-2-2-2-2-2-2-|
----------------------------------|----------------------------------|


  S S E  H.             
----------------------||
----------------------||
--2-2-2---------------||
----------------------||




Duration Legend
---------------
W - whole
H - half
Q - quarter
E - 8th
S - 16th
T - 32nd
X - 64th
. - note dotted
|-n-|  - n-tuplets


Tablature Legend
----------------
L - tied note
x - dead note
g - grace note
(n) - ghost note
> - accentuded note
NH - natural harmonic
AH - artificial harmonic
TH - tapped harmonic
SH - semi harmonic
PH - pitch harmonic
h - hammer on
p - pull off
b - bend
br - bendRelease
pb - preBend
pbr - preBendRelease
brb - bendReleaseBend
\n/ - tremolo bar dip
\n - tremolo bar dive
-/n - tremolo bar Release up
/n\ - tremolo bar inverted dip
/n - tremolo bar return
-\n - tremolo bar Release down
S - shift slide
s - legato slide
/ -  slide into from below or out of upwards
\ -  slide into from above or out of downwards
~ - vibrato
W - wide vibrato
tr - trill
TP - tremolo picking
T - tapping
S - slap
P - pop
< - fade in
^ - brush up
v - brush down





Comments


Popular After Forever tabs & chords
Boundaries Are Open Bass Tabs
Monolith Of Doubt 2 Bass Tabs
Monolith Of Doubtt Bass Tabs
Empty Memories Chords
Attendance Intro Tabs
Black Tomb Tabs
Come Tabs
Digital Deceit Intro Tabs
Inimical Chimera Tabs
Empty Memories Ukulele


Song lyrics



↑ Back to top | Tablatures and chords are parodies/interpretations of the original songs. You may use it for private study, scholarship, research or language learning purposes only
© 2014 AZChords.com Contact us | Privacy policy | DMCA | Add/correct tabs | Request tabs | Top 50 tabs