» » »

After Forever, Boundaries Are Open Bass tabs (ver.1)

Artists:  A B C D E F G H I J K L M N O P Q R S T U V W X Y Z # 

Boundaries Are Open Bass tabs (ver.1)

After Forever Tabs
 Rating:
4/5 (4 votes)
Boundaries Are Open lessons Tabs too difficult? Try these video lessons and learn fast
                            Boundaries Are Open              


                                After Forever
Luuk van Gerven



     W                   Q     
G||-------------------|-------|
D||-------------------|-------|
A||-------------------|-------|
E||-------------------|-------|
B||-------------------|-------|


  E  E  E  E  E  E  E  E   
--------------------------|
--------------------------|
--------------------------|
--5--5--5--5--5--5--5--5--|
--------------------------|


  E  E  E  E  E  E  E  E   
--------------------------|
--------------------------|
--------------------------|
--5--5--5--5--5--5--5--5--|
--------------------------|


  E  E  E  E  E  E  E  E   
--------------------------|
--------------------------|
--------------------------|
--------------------------|
--3--3--3--3--3--3--3--3--|


  E  E  E  E  E  E  E  E   
--------------------------|
--------------------------|
--------------------------|
--------------------------|
--1--1--1--1--1--1--1--1--|


  E  E  E  E  E  E  E  E   
--------------------------|
--------------------------|
--------------------------|
--5--5--5--5--5--5--5--5--|
--------------------------|


  E  E  E  E  E  E  E  E   
--------------------------|
--------------------------|
--------------------------|
--4--4--4--4--4--4--4--4--|
--------------------------|


  E  E  E  E  E  E  E  E   
--------------------------|
--------------------------|
--------------------------|
--------------------------|
--3--3--3--3--3--3--3--3--|


  E  E  E  E  E  E  E  E   
--------------------------|
--------------------------|
--------------------------|
--------------------------|
--1--1--1--1--1--1--1--1--|


  E  E  E  E  E  E  E  E   
--------------------------|
--------------------------|
--1--1--1--1--1--1--1--1--|
--------------------------|
--------------------------|


  E  E  E  E  E  E  E  E   
--------------------------|
--------------------------|
--1--1--1--1--1--1--1--1--|
--------------------------|
--------------------------|


  E  E  E  E  E  E  E  E   
--------------------------|
--------------------------|
--------------------------|
--3--3--3--3--3--3--3--3--|
--------------------------|


  E  E  E  E  E  E  E  E   
--------------------------|
--------------------------|
--------------------------|
--3--3--3--3--3--3--3--3--|
--------------------------|


  E  E  E  E  E  E  E  E   
--------------------------|
--------------------------|
--1--1--1--1--1--1--1--1--|
--------------------------|
--------------------------|


  E  E  E  E  E  E  E  E   
--------------------------|
--------------------------|
--1--1--1--1--1--1--1--1--|
--------------------------|
--------------------------|


  E  E  E  E  E  E  E  E   
--------------------------|
--------------------------|
--5--5--5--5--5--5--5--5--|
--------------------------|
--------------------------|


  E  E  E  E  E  E  E  E   
--------------------------|
--------------------------|
--5--5--5--5--5--5--5--5--|
--------------------------|
--------------------------|


  E  E  E  E  E  E  E  E   
--------------------------|
--------------------------|
--1--1--1--1--1--1--1--1--|
--------------------------|
--------------------------|


  E  E  E  E  E  E  E  E   
--------------------------|
--------------------------|
--1--1--1--1--1--1--1--1--|
--------------------------|
--------------------------|


  E  E  E  E  E  E  E  E   
--------------------------|
--------------------------|
--------------------------|
--3--3--3--3--3--3--3--3--|
--------------------------|


  E  E  E  E  E  E  E  E   
--------------------------|
--------------------------|
--------------------------|
--3--3--3--3--3--3--3--3--|
--------------------------|


  E  E  E  E  E  E  E  E   
--------------------------|
--------------------------|
--------------------------|
--4--4--4--4--4--4--4--4--|
--------------------------|


  E  E  E  E  E  E  E  E   
--------------------------|
--------------------------|
--------------------------|
--4--4--4--4--4--4--4--4--|
--------------------------|


  E  E  E  E  E  E  E  E   
--------------------------|
--------------------------|
--------------------------|
--5--5--5--5--5--5--5--5--|
--------------------------|


  E  E  E  E  E  E  E  E   
--------------------------|
--------------------------|
--------------------------|
--5--5--5--5--5--5--5--5--|
--------------------------|


  E  E  E  E  E  E  E  E   
--------------------------|
--------------------------|
--------------------------|
--------------------------|
--3--3--3--3--3--3--3--3--|


  E  E  E  E  E  E  E  E   
--------------------------|
--------------------------|
--------------------------|
--------------------------|
--1--1--1--1--1--1--1--1--|


  E  E  E  E  E  E  E  E   
--------------------------|
--------------------------|
--------------------------|
--5--5--5--5--5--5--5--5--|
--------------------------|


  E  E  E  E  E  E  E  E   
--------------------------|
--------------------------|
--------------------------|
--4--4--4--4--4--4--4--4--|
--------------------------|


  E  E  E  E  E  E  E  E   
--------------------------|
--------------------------|
--------------------------|
--------------------------|
--3--3--3--3--3--3--3--3--|


  E  E  E  E  E  E  E  E   
--------------------------|
--------------------------|
--------------------------|
--------------------------|
--1--1--1--1--1--1--1--1--|


  E  E  E  E  E  E  E  E   
--------------------------|
--------------------------|
--1--1--1--1--1--1--1--1--|
--------------------------|
--------------------------|


  E  E  E  E  E  E  E  E   
--------------------------|
--------------------------|
--1--1--1--1--1--1--1--1--|
--------------------------|
--------------------------|


  E  E  E  E  E  E  E  E   
--------------------------|
--------------------------|
--5--5--5--5--5--5--5--5--|
--------------------------|
--------------------------|


  E  E  E  E  E  E  E  E   
--------------------------|
--------------------------|
--5--5--5--5--5--5--5--5--|
--------------------------|
--------------------------|


  E  E  E  E  E  E  E  E   
--------------------------|
--------------------------|
--1--1--1--1--1--1--1--1--|
--------------------------|
--------------------------|


  E  E  E  E  E  E  E  E   
--------------------------|
--------------------------|
--1--1--1--1--1--1--1--1--|
--------------------------|
--------------------------|


  E  E  E  E  E  E  E  E   
--------------------------|
--------------------------|
--------------------------|
--3--3--3--3--3--3--3--3--|
--------------------------|


  E  E  E  E  E  E  E  E   
--------------------------|
--------------------------|
--------------------------|
--3--3--3--3--3--3--3--3--|
--------------------------|


  E  E  E  E  E  E  E  E   
--------------------------|
--------------------------|
--1--1--1--1--1--1--1--1--|
--------------------------|
--------------------------|


  E  E  E  E  E  E  E  E   
--------------------------|
--------------------------|
--1--1--1--1--1--1--1--1--|
--------------------------|
--------------------------|


  E  E  E  E  E  E  E  E   
--------------------------|
--------------------------|
--5--5--5--5--5--5--5--5--|
--------------------------|
--------------------------|


  E  E  E  E  E  E  E  E   
--------------------------|
--------------------------|
--5--5--5--5--5--5--5--5--|
--------------------------|
--------------------------|


  E  E  E  E  E  E  E  E   
--------------------------|
--------------------------|
--1--1--1--1--1--1--1--1--|
--------------------------|
--------------------------|


  E  E  E  E  E  E  E  E   
--------------------------|
--------------------------|
--1--1--1--1--1--1--1--1--|
--------------------------|
--------------------------|


  E  E  E  E  E  E  E  E   
--------------------------|
--------------------------|
--------------------------|
--2--2--2--2--2--2--2--2--|
--------------------------|


  E  E  E  E  E  E  E  E   
--------------------------|
--------------------------|
--------------------------|
--2--2--2--2--2--2--2--2--|
--------------------------|


  E  E  E  E  E  E  E  E   
--------------------------|
--------------------------|
--------------------------|
--0--0--0--0--0--0--0--0--|
--------------------------|


  E  E  E  E  E  E  E  E   
--------------------------|
--------------------------|
--------------------------|
--0--0--0--0--0--0--0--0--|
--------------------------|


  E  E  E  E  E  E  E  E   
--------------------------|
--------------------------|
--------------------------|
--0--0--0--0--0--0--0--0--|
--------------------------|


  E  E  E  E  E  E  E  E   
--------------------------|
--------------------------|
--------------------------|
--0--0--0--0--0--0--0--0--|
--------------------------|


  E  E  E  E  E  E  E  E   
--------------------------|
--------------------------|
--------------------------|
--0--0--0--0--0--0--0--0--|
--------------------------|


  E  E  E  E  E  E  E  E   
--------------------------|
--------------------------|
--------------------------|
--0--0--0--0--0--0--0--0--|
--------------------------|


  E  E  E  E  E  E  E  E   
--------------------------|
--------------------------|
--3--3--3--3--3--3--3--3--|
--------------------------|
--------------------------|


  E  E  E  E  E  E  E  E   
--------------------------|
--------------------------|
--5--5--5--5--5--5--5--5--|
--------------------------|
--------------------------|


  E  S S E  S S E  S S S S S S  
-------------------------------|
-------------------------------|
-------------------------------|
--2--2-2-2--2-2-2--2-2-2-2-2-2-|
-------------------------------|


  E  S S E  S S E  S S S S S S  
-------------------------------|
-------------------------------|
-------------------------------|
--2--2-2-2--2-2-2--2-2-2-2-2-2-|
-------------------------------|


  E  S S E  S S E  S S S S S S  
-------------------------------|
-------------------------------|
-------------------------------|
--2--2-2-2--2-2-2--2-2-2-2-2-2-|
-------------------------------|


  E  S S E  S S E  S S S S S S  
-------------------------------|
-------------------------------|
-------------------------------|
--2--2-2-2--2-2-2--2-2-2-2-2-2-|
-------------------------------|


  E  S S E  S S E  S S S S S S  
-------------------------------|
-------------------------------|
-------------------------------|
--2--2-2-2--2-2-2--2-2-2-2-2-2-|
-------------------------------|


  E  S S E  S S E  S S S S S S  
-------------------------------|
-------------------------------|
-------------------------------|
--2--2-2-2--2-2-2--2-2-2-2-2-2-|
-------------------------------|


  E  E  E  E  E  E  E  E   
--------------------------|
--------------------------|
--5--5--5--5--5--5--5--5--|
--------------------------|
--------------------------|


  E  E  E  E  E  E  E  E   
--------------------------|
--------------------------|
--7--7--7--7--7--7--7--7--|
--------------------------|
--------------------------|


  E  E  E  E  E  E  E  E   
--------------------------|
--------------------------|
--------------------------|
--5--5--5--5--5--5--5--5--|
--------------------------|


  E  E  E  E  E  E  E  E   
--------------------------|
--------------------------|
--------------------------|
--5--5--5--5--5--5--5--5--|
--------------------------|


  E  E  E  E  E  E  E  E   
--------------------------|
--------------------------|
--------------------------|
--------------------------|
--3--3--3--3--3--3--3--3--|


  E  E  E  E  E  E  E  E   
--------------------------|
--------------------------|
--------------------------|
--------------------------|
--1--1--1--1--1--1--1--1--|


  E  E  E  E  E  E  E  E   
--------------------------|
--------------------------|
--------------------------|
--5--5--5--5--5--5--5--5--|
--------------------------|


  E  E  E  E  E  E  E  E   
--------------------------|
--------------------------|
--------------------------|
--4--4--4--4--4--4--4--4--|
--------------------------|


  E  E  E  E  E  E  E  E   
--------------------------|
--------------------------|
--------------------------|
--------------------------|
--3--3--3--3--3--3--3--3--|


  E  E  E  E  E  E  E  E   
--------------------------|
--------------------------|
--------------------------|
--------------------------|
--1--1--1--1--1--1--1--1--|


  S E  S E  S E  S E  S S S S  
------------------------------|
------------------------------|
------------------------------|
--5----5----5----5----5---5---|
------------------------------|


  S E  S E  S E  S E  S S S S  
------------------------------|
------------------------------|
------------------------------|
--5----5----5----5----5---5---|
------------------------------|


  S E  S E  S E  S E  S S S S  
------------------------------|
------------------------------|
------------------------------|
--4----4----4----4----4---4---|
------------------------------|


  S E  S E  S E  S E  S S S S  
------------------------------|
------------------------------|
------------------------------|
--4----4----4----4----4---4---|
------------------------------|


  S E  S E  S E  S E  S S S S  
------------------------------|
------------------------------|
------------------------------|
--3----3----3----3----3---3---|
------------------------------|


  S E  S E  S E  S E  S S S S  
------------------------------|
------------------------------|
------------------------------|
--3----3----3----3----3---3---|
------------------------------|


  S E  S E  S E  S E  S S S S  
------------------------------|
------------------------------|
------------------------------|
--2----2----2----2----2---2---|
------------------------------|


  S E  S E  S E  S E  S S S S  
------------------------------|
------------------------------|
------------------------------|
--2----2----2----2----2---2---|
------------------------------|


  S E  S E  S E  S E  S S S S  
------------------------------|
------------------------------|
------------------------------|
--5----5----5----5----5---5---|
------------------------------|


  S E  S E  S E  S E  S S S S  
------------------------------|
------------------------------|
------------------------------|
--5----5----5----5----5---5---|
------------------------------|


  S E  S E  S E  S E  S S S S  
------------------------------|
------------------------------|
------------------------------|
--4----4----4----4----4---4---|
------------------------------|


  S E  S E  S E  S E  S S S S  
------------------------------|
------------------------------|
------------------------------|
--4----4----4----4----4---4---|
------------------------------|


  S E  S E  S E  S E  S S S S  
------------------------------|
------------------------------|
------------------------------|
--3----3----3----3----3---3---|
------------------------------|


  S E  S E  S E  S E  S S S S  
------------------------------|
------------------------------|
------------------------------|
--3----3----3----3----3---3---|
------------------------------|


  S E  S E  S E  S E  S S S S  
------------------------------|
------------------------------|
------------------------------|
--2----2----2----2----2---2---|
------------------------------|


  S E  S E  S E  S E  S S S S  
------------------------------|
------------------------------|
------------------------------|
--2----2----2----2----2---2---|
------------------------------|


  E  E  E  E  E  E  E  E   
--------------------------|
--------------------------|
--------------------------|
--0--0--0--0--0--0--0--0--|
--------------------------|


  E  E  E  E  E  E  E  E   
--------------------------|
--------------------------|
--------------------------|
--0--0--0--0--0--0--0--0--|
--------------------------|


  E  E  E  E  E  E  E  E   
--------------------------|
--------------------------|
--------------------------|
--0--0--0--0--0--0--0--0--|
--------------------------|


  E  S E  S E  E  S E  S E   
----------------------------|
--5----5----5--4----4----4--|
-----7----7-------7----7----|
----------------------------|
----------------------------|


  E  E  E  E  E  E  E  E   
--------------------------|
--------------------------|
--------------------------|
--0--0--0--0--0--0--0--0--|
--------------------------|


  E  E  E  E  E  E  E  E   
--------------------------|
--------------------------|
--------------------------|
--0--0--0--0--0--0--0--0--|
--------------------------|


  E  E  E  E  E  E  E  E   
--------------------------|
--------------------------|
--3--3--3--3--3--3--3--3--|
--------------------------|
--------------------------|


  E  E  E  E  E  E  E  E   
--------------------------|
--------------------------|
--5--5--5--5--4--4--4--4--|
--------------------------|
--------------------------|


  E  S S E  S S E  S S S S S S  
-------------------------------|
-------------------------------|
-------------------------------|
--2--2-2-2--2-2-2--2-2-2-2-2-2-|
-------------------------------|


  E  S S E  S S E  S S S S S S  
-------------------------------|
-------------------------------|
-------------------------------|
--2--2-2-2--2-2-2--2-2-2-2-2-2-|
-------------------------------|


  E  S S E  S S E  S S S S S S  
-------------------------------|
-------------------------------|
-------------------------------|
--2--2-2-2--2-2-2--2-2-2-2-2-2-|
-------------------------------|


  E  S S E  S S E  S S S S S S  
-------------------------------|
-------------------------------|
-------------------------------|
--2--2-2-2--2-2-2--2-2-2-2-2-2-|
-------------------------------|


  E  S S E  S S E  S S S S S S  
-------------------------------|
-------------------------------|
-------------------------------|
--2--2-2-2--2-2-2--2-2-2-2-2-2-|
-------------------------------|


  E  S S E  S S E  S S S S S S  
-------------------------------|
-------------------------------|
-------------------------------|
--2--2-2-2--2-2-2--2-2-2-2-2-2-|
-------------------------------|


  E  E  E  E  E  E  E  E   
--------------------------|
--------------------------|
--5--5--5--5--5--5--5--5--|
--------------------------|
--------------------------|


  E  E  E  E  E  E  E  E   
--------------------------|
--------------------------|
--7--7--7--7--7--7--7--7--|
--------------------------|
--------------------------|


  E  E  E  E  E  E  E  E   
--------------------------|
--------------------------|
--------------------------|
--5--5--5--5--5--5--5--5--|
--------------------------|


  E  E  E  E  E  E  E  E   
--------------------------|
--------------------------|
--------------------------|
--5--5--5--5--5--5--5--5--|
--------------------------|


  E  E  E  E  E  E  E  E   
--------------------------|
--------------------------|
--------------------------|
--------------------------|
--3--3--3--3--3--3--3--3--|


  E  E  E  E  E  E  E  E   
--------------------------|
--------------------------|
--------------------------|
--------------------------|
--1--1--1--1--1--1--1--1--|


  E  E  E  E  E  E  E  E   
--------------------------|
--------------------------|
--------------------------|
--5--5--5--5--5--5--5--5--|
--------------------------|


  E  E  E  E  E  E  E  E   
--------------------------|
--------------------------|
--------------------------|
--4--4--4--4--4--4--4--4--|
--------------------------|


  E  E  E  E  E  E  E  E   
--------------------------|
--------------------------|
--------------------------|
--------------------------|
--3--3--3--3--3--3--3--3--|


  E  E  E  E  E  E  E  E   
--------------------------|
--------------------------|
--------------------------|
--------------------------|
--1--1--1--1--1--1--1--1--|


  E  E  E  E  E  E  E  E   
--------------------------|
--------------------------|
--------------------------|
--5--5--5--5--5--5--5--5--|
--------------------------|


  E  E  E  E  E  E  E  E   
--------------------------|
--------------------------|
--------------------------|
--5--5--5--5--5--5--5--5--|
--------------------------|


  E  E  E  E  E  E  E  E   
--------------------------|
--------------------------|
--------------------------|
--------------------------|
--3--3--3--3--3--3--3--3--|


  E  E  E  E  E  E  E  E   
--------------------------|
--------------------------|
--------------------------|
--------------------------|
--1--1--1--1--1--1--1--1--|


  E  E  E  E  E  E  E  E   
--------------------------|
--------------------------|
--------------------------|
--5--5--5--5--5--5--5--5--|
--------------------------|


  E  E  E  E  E  E  E  E   
--------------------------|
--------------------------|
--------------------------|
--4--4--4--4--4--4--4--4--|
--------------------------|


  E  E  E  E  E  E  E  E   
--------------------------|
--------------------------|
--------------------------|
--------------------------|
--3--3--3--3--3--3--3--3--|


  E  E  E  E  E  E  E  E   
--------------------------|
--------------------------|
--------------------------|
--------------------------|
--1--1--1--1--1--1--1--1--|


  S E  S E  S E  S E  S S S S  
------------------------------|
------------------------------|
------------------------------|
--5----5----5----5----5---5---|
------------------------------|


  E  E  H.             
---------------------||
---------------------||
---------------------||
--5------------------||
---------------------||




Duration Legend
---------------
W - whole
H - half
Q - quarter
E - 8th
S - 16th
T - 32nd
X - 64th
. - note dotted
|-n-|  - n-tuplets


Tablature Legend
----------------
L - tied note
x - dead note
g - grace note
(n) - ghost note
> - accentuded note
NH - natural harmonic
AH - artificial harmonic
TH - tapped harmonic
SH - semi harmonic
PH - pitch harmonic
h - hammer on
p - pull off
b - bend
br - bendRelease
pb - preBend
pbr - preBendRelease
brb - bendReleaseBend
\n/ - tremolo bar dip
\n - tremolo bar dive
-/n - tremolo bar Release up
/n\ - tremolo bar inverted dip
/n - tremolo bar return
-\n - tremolo bar Release down
S - shift slide
s - legato slide
/ -  slide into from below or out of upwards
\ -  slide into from above or out of downwards
~ - vibrato
W - wide vibrato
tr - trill
TP - tremolo picking
T - tapping
S - slap
P - pop
< - fade in
^ - brush up
v - brush down
            
Submit corrections

comments powered by Disqus
↑ Back to top | After Forever Bass for Boundaries Are Open. Lyrics for acoustic guitar and electric guitar. Tablatures and chords are parodies/interpretations of the original songs. You may use it for private study, scholarship, research or language learning purposes only