>
 >
Between Love And Fire

Between Love And Fire Bass Tabs

After Forever - Between Love And Fire chords, tabs, tablatures, lyrics

Guitar lessons | Add/correct | Request | Top 50 tabs Artists:  A B C D E F G H I J K L M N O P Q R S T U V W X Y Z 0-9

Between Love And Fire Bass Tabs – After Forever

CD, Sheet music, Poster

Do you like Between Love And Fire? Share with your friends now
Bass Tabs
          Between Love And Fire             


                                After Forever
Bass



     W                   H        H         
G||-------------------|--------------------|
D||-------------------|--------------------|
A||-------------------|--------------------|
D||-------------------|-----------2--------|


  W                   H        H         
-------------------|--------------------|
-------------------|--------------------|
-------------------|-----------2--------|
--L----------------|--L-----------------|


  H        E  Q.        H        H         
---------------------|--------------------|
---------------------|--------------------|
--L--------2--1------|--------------------|
---------------------|--4--------2--------|


  W                   H        H         
-------------------|--------------------|
-------------------|--------------------|
-------------------|-----------2--------|
--L----------------|--L-----------------|


  H        E  Q.        H         
---------------------|-----------|
---------------------|-----------|
--2--------2--1------|-----------|
---------------------|--5--------|


  W                   W                 
-------------------|-------------------|
-------------------|-------------------|
--2----------------|-------------------|
-------------------|--L----------------|


  S E  E  E  S S S E  E  S S  
-----------------------------|
--4--------------------------|
----2--2--2--2-2-2-2--2--2-2-|
-----------------------------|


  E  E  H        Q     
-----------------4----|
----------------------|
--2-------------------|
----------------------|


  E  E  E  S S S E  S S S S S  
------------------------------|
------------------------------|
--2--2--2--2-2-2-2--2-2-2-2-2-|
------------------------------|


  E  E  E  S S S E  S S S S S  
------------------------------|
------------------------------|
--2--2--2--2-2-2-2--2-2-2-2-2-|
------------------------------|


  E  E  E  S S S E  S S S S S  
------------------------------|
------------------------------|
--2--2--2--2-2-2-2--2-2-2-2-2-|
------------------------------|


  E  E  E  S S S E  S S S S S  
------------------------------|
------------------------------|
--2--2--2--2-2-2-2--2-2-2-2-2-|
------------------------------|


  E  E  E  S S S E  S S S S S  
------------------------------|
------------------------------|
------------------------------|
--4--4--4--4-4-4-4--4-4-4-4-4-|


  E  E  E  S S S E  S S S S S  
------------------------------|
------------------------------|
--2---------------------------|
-----4--4--4-4-4-4--4-4-4-4-4-|


  E  E  E  S S S E  S S S S S  
------------------------------|
------------------------------|
--5---------------------------|
-----4--4--4-4-4-4--4-4-4-4-4-|


  E  E  E  S S S E  S S S S S  
------------------------------|
------------------------------|
--2---------------------------|
-----4--4--4-4-4-4--4-4-4-4-4-|


  E  E  E  S S S E  S S S S S  
------------------------------|
------------------------------|
--2--2--2--2-2-2-2--2-2-2-2-2-|
------------------------------|


  E  E  E  S S S E  S S S S S  
------------------------------|
------------------------------|
--2--2--2--2-2-2-2--2-2-2-2-2-|
------------------------------|


  E  E  E  S S S E  S S S S S  
------------------------------|
------------------------------|
--2--2--2--2-2-2-2--2-2-2-2-2-|
------------------------------|


  E  E  E  S S S E  S S S S S  
------------------------------|
------------------------------|
--2--2--2--2-2-2-2--2-2-2-2-2-|
------------------------------|


  E  E  E  S S S E  S S S S S  
------------------------------|
------------------------------|
------------------------------|
--4--4--4--4-4-4-4--4-4-4-4-4-|


  E  E  E  S S S E  S S S S S  
------------------------------|
------------------------------|
--2---------------------------|
-----4--4--4-4-4-4--4-4-4-4-4-|


  E  E  E  S S S E  S S S S S  
------------------------------|
------------------------------|
--5---------------------------|
-----4--4--4-4-4-4--4-4-4-4-4-|


  E  E  E  S S S E  S S S S S  
------------------------------|
------------------------------|
--2---------------------------|
-----4--4--4-4-4-4--4-4-4-4-4-|


  S S S S Q    S S E  S S E   
-----------------------------|
-----------------------------|
--2-2-2-2-2----2-2-2--2-2-2--|
-----------------------------|


  S S S S Q    S S E  S S E   
-----------------------------|
-----------------------------|
--4-4-4-4-4----4-4-4--4-4-4--|
-----------------------------|


  S S S S Q    S S E  S S E   
-----------------------------|
-----------------------------|
--2-2-2-2-2----2-2-2--2-2-2--|
-----------------------------|


  S S S S Q    S S E  S S E   
-----------------------------|
-----------------------------|
--4-4-4-4-4----4-4-4--4-4-4--|
-----------------------------|


  S S S S S S S S S S S S S S S S  
----------------------------------|
----------------------------------|
----------------------------------|
--5-5-5-5-5-5-5-5-5-5-5-5-5-5-5-5-|


  S S S S S S S S S S S S S S S S  
----------------------------------|
----------------------------------|
----------------------------------|
--7-7-7-7-7-7-7-7-7-7-7-7-7-7-7-7-|


  S S S S S S S S S S S S S S S S  
----------------------------------|
----------------------------------|
----------------------------------|
--4---4---4---4---4---4---4---4---|


  S S S S S S S S S S S S S S S S  
----------------------------------|
----------------------------------|
--1---1---1---1---1---1---1---1---|
----------------------------------|


  E  E  E  S S S E  S S S S S  
------------------------------|
------------------------------|
--2--2--2--2-2-2-2--2-2-2-2-2-|
------------------------------|


  E  E  E  S S S E  S S S S S  
------------------------------|
------------------------------|
--2--2--2--2-2-2-2--2-2-2-2-2-|
------------------------------|


  E  E  E  S S S E  S S S S S  
------------------------------|
------------------------------|
--2--2--2--2-2-2-2--2-2-2-2-2-|
------------------------------|


  E  E  E  S S S E  S S S S S  
------------------------------|
------------------------------|
--2--2--2--2-2-2-2--2-2-2-2-2-|
------------------------------|


  E  E  E  S S S E  S S S S S  
------------------------------|
------------------------------|
------------------------------|
--4--4--4--4-4-4-4--4-4-4-4-4-|


  E  E  E  S S S E  S S S S S  
------------------------------|
------------------------------|
--2---------------------------|
-----4--4--4-4-4-4--4-4-4-4-4-|


  E  E  E  S S S E  S S S S S  
------------------------------|
------------------------------|
--5---------------------------|
-----4--4--4-4-4-4--4-4-4-4-4-|


  E  E  E  S S S E  S S S S S  
------------------------------|
------------------------------|
--2---------------------------|
-----4--4--4-4-4-4--4-4-4-4-4-|


  E  E  E  S S S E  S S S S S  
------------------------------|
------------------------------|
--2--2--2--2-2-2-2--2-2-2-2-2-|
------------------------------|


  E  E  E  S S S E  S S S S S  
------------------------------|
------------------------------|
--2--2--2--2-2-2-2--2-2-2-2-2-|
------------------------------|


  E  E  E  S S S E  S S S S S  
------------------------------|
------------------------------|
--2--2--2--2-2-2-2--2-2-2-2-2-|
------------------------------|


  E  E  E  S S S E  S S S S S  
------------------------------|
------------------------------|
--2--2--2--2-2-2-2--2-2-2-2-2-|
------------------------------|


  E  E  E  S S S E  S S S S S  
------------------------------|
------------------------------|
------------------------------|
--4--4--4--4-4-4-4--4-4-4-4-4-|


  E  E  E  S S S E  S S S S S  
------------------------------|
------------------------------|
--2---------------------------|
-----4--4--4-4-4-4--4-4-4-4-4-|


  E  E  E  S S S E  S S S S S  
------------------------------|
------------------------------|
--5---------------------------|
-----4--4--4-4-4-4--4-4-4-4-4-|


  E  E  E  S S S E  S S S S S  
------------------------------|
------------------------------|
--2---------------------------|
-----4--4--4-4-4-4--4-4-4-4-4-|


  S S S S Q    S S E  S S E   
-----------------------------|
-----------------------------|
--2-2-2-2-2----2-2-2--2-2-2--|
-----------------------------|


  S S S S Q    S S E  S S E   
-----------------------------|
-----------------------------|
--4-4-4-4-4----4-4-4--4-4-4--|
-----------------------------|


  S S S S Q    S S E  S S E   
-----------------------------|
-----------------------------|
--2-2-2-2-2----2-2-2--2-2-2--|
-----------------------------|


  S S S S Q    S S E  S S E   
-----------------------------|
-----------------------------|
--4-4-4-4-4----4-4-4--4-4-4--|
-----------------------------|


  S S S S S S S S S S S S S S S S  
----------------------------------|
----------------------------------|
----------------------------------|
--5-5-5-5-5-5-5-5-5-5-5-5-5-5-5-5-|


  S S S S S S S S S S S S S S S S  
----------------------------------|
----------------------------------|
----------------------------------|
--7-7-7-7-7-7-7-7-7-7-7-7-7-7-7-7-|


  S S S S S S S S S S S S S S S S  
----------------------------------|
----------------------------------|
----------------------------------|
--4---4---4---4---4---4---4---4---|


  S S S S S S S S S S S S S S S S  
----------------------------------|
----------------------------------|
--1---1---1---1---1---1---1---1---|
----------------------------------|


  S S S S Q    S S E  S S E   
-----------------------------|
-----------------------------|
--2-2-2-2-2----2-2-2--2-2-2--|
-----------------------------|


  S S S S Q    S S E  S S E   
-----------------------------|
-----------------------------|
--4-4-4-4-4----4-4-4--4-4-4--|
-----------------------------|


  S S S S Q    S S E  S S E   
-----------------------------|
-----------------------------|
--2-2-2-2-2----2-2-2--2-2-2--|
-----------------------------|


  S S S S Q    S S E  S S E   
-----------------------------|
-----------------------------|
--4-4-4-4-4----4-4-4--4-4-4--|
-----------------------------|


  S S S S S S S S S S S S S S S S  
----------------------------------|
----------------------------------|
----------------------------------|
--5-5-5-5-5-5-5-5-5-5-5-5-5-5-5-5-|


  S S S S S S S S S S S S S S S S  
----------------------------------|
----------------------------------|
----------------------------------|
--7-7-7-7-7-7-7-7-7-7-7-7-7-7-7-7-|


  S S S S S S S S S S S S S S S S  
----------------------------------|
----------------------------------|
----------------------------------|
--4---4---4---4---4---4---4---4---|


  S S S S S S S S S S S S S S S S  
----------------------------------|
----------------------------------|
--1---1---1---1---1---1---1---1---|
----------------------------------|


  S S S S S S E  H         
--------------------------|
--------------------------|
--5-5-5-5-5-5-5-----------|
--------------------------|


  S S S S S S E  H         
--------------------------|
--------------------------|
--5-5-5-5-5-5-5-----------|
--------------------------|


  S S S S S S E  H         
--------------------------|
--------------------------|
--------------------------|
--4-4-4-4-4-4-4-----------|


  S S S S S S Q    E  E  E   
----------------------------|
----------------------------|
----------------------------|
--8-8-8-8-8-8-8----6--5--3--|


  E  S E  S E  S E  E  E  S  
----------------------------|
----------------------------|
----------------------------|
--5--5-5--5-5--5-5--5--5--5-|


  E  S E  S E  S E  E  E  S  
----------------------------|
----------------------------|
----------------------------|
--5--5-5--5-5--5-5--5--5--5-|


  E  S E  S E  S E  E  E  S  
----------------------------|
----------------------------|
----------------------------|
--0--0-0--0-0--0-0--0--0--0-|


  E  S E  S E  S E  E  E  S  
----------------------------|
----------------------------|
----------------------------|
--0--0-0--0-0--0-6--5--3--2-|


  E  S E  S E  S E  E  E  S  
----------------------------|
----------------------------|
----------------------------|
--5--5-5--5-5--5-5--5--5--5-|


  E  S E  S E  S E  E  E  S  
----------------------------|
----------------------------|
----------------------------|
--5--5-5--5-5--5-5--5--5--5-|


  E  S E  S E  S E  E  E  S  
----------------------------|
----------------------------|
----------------------------|
--0--0-0--0-0--0-0--0--0--0-|


  E  S E  S E  S E  E  E  S  
----------------------------|
----------------------------|
----------------------------|
--0--0-0--0-0--0-6--5--3--2-|


  S S S S S S S S S S S S S S S S  
----------------------------------|
----------------------------------|
----------------------------------|
--2-2-2-2-2-2-2-2-2-2-2-2-2-2-2-2-|


  S S S S S S S S S S S S S S S S  
----------------------------------|
----------------------------------|
----------------------------------|
--2-2-2-2-2-2-2-2-2-2-2-2-2-2-2-2-|


  S S S S S S S S S S S S S S S S  
----------------------------------|
----------------------------------|
----------------------------------|
--2-2-2-2-2-2-2-2-2-2-2-2-2-2-2-2-|


  S S S S S S S S E  E  E  E   
------------------------------|
---------------------------3--|
---------------------4--5-----|
--2-2-2-2-2-2-2-2-2-----------|


  S S S S S S S S S S S S S S S S  
----------------------------------|
----------------------------------|
----------------------------------|
--2-2-2-2-2-2-2-2-2-2-2-2-2-2-2-2-|


  S S S S S S S S S S S S S S S S  
----------------------------------|
----------------------------------|
----------------------------------|
--2-2-2-2-2-2-2-2-2-2-2-2-2-2-2-2-|


  S S S S S S S S S S S S S S S S  
----------------------------------|
----------------------------------|
----------------------------------|
--2-2-2-2-2-2-2-2-2-2-2-2-2-2-2-2-|


  S S S S S S S S E  E  E  E   
------------------------------|
---------------------------3--|
---------------------4--5-----|
--2-2-2-2-2-2-2-2-2-----------|


  E  S E  S E  S E  E  E  S  
----------------------------|
----------------------------|
----------------------------|
--5--5-5--5-5--5-5--5--5--5-|


  E  S E  S E  S E  E  E  S  
----------------------------|
----------------------------|
----------------------------|
--5--5-5--5-5--5-5--5--5--5-|


  E  S E  S E  S E  E  E  S  
----------------------------|
----------------------------|
----------------------------|
--0--0-0--0-0--0-0--0--0--0-|


  E  S E  S E  S E  E  E  S  
----------------------------|
----------------------------|
----------------------------|
--0--0-0--0-0--0-6--5--3--2-|


  E  S E  S E  S E  E  E  S  
----------------------------|
----------------------------|
----------------------------|
--5--5-5--5-5--5-5--5--5--5-|


  E  S E  S E  S E  E  E  S  
----------------------------|
----------------------------|
----------------------------|
--5--5-5--5-5--5-5--5--5--5-|


  E  S E  S E  S E  E  E  S  
----------------------------|
----------------------------|
----------------------------|
--0--0-0--0-0--0-0--0--0--0-|


  E  S E  S E  S E  E  E  S  
----------------------------|
----------------------------|
----------------------------|
--0--0-0--0-0--0-6--5--3--2-|


  S S S S S S E  H         
--------------------------|
--------------------------|
--------------------------|
--2-2-2-2-2-2-2-----------|


  S S S S S S E  Q    E  E   
----------------------------|
----------------------------|
----------------------------|
--2-2-2-2-2-2-2-------2--2--|


  S S S S S S E  H         
--------------------------|
--------------------------|
--------------------------|
--2-2-2-2-2-2-2-----------|


  S S S S S S E  Q    E  E   
----------------------------|
----------------------------|
----------------------------|
--2-2-2-2-2-2-2-------2--2--|


  E  E  E  E  H           W                 
-----------------------|-------------------|
-----------------------|-------------------|
-----------------------|-------------------|
--2--2--2--------------|-------------------|


  W                   W                 
-------------------|-------------------|
-------------------|-------------------|
-------------------|-------------------|
-------------------|-------------------|


  W                   W                 
-------------------|-------------------|
-------------------|-------------------|
-------------------|-------------------|
-------------------|-------------------|


  W                   W                 
-------------------|-------------------|
-------------------|-------------------|
-------------------|-------------------|
-------------------|-------------------|


    W                   W                 
|--------------------|-------------------|
|*-------------------|-------------------|
|*-------------------|-------------------|
|--------------------|-------------------|


  W                   W                 
-------------------|-------------------|
-------------------|-------------------|
-------------------|-------------------|
-------------------|-------------------|


  W                   W                 
-------------------|-------------------|
-------------------|-------------------|
-------------------|-------------------|
-------------------|-------------------|

1|--------------------------------------|
  W                   W                   
-------------------|--------------------||
-------------------|-------------------*||
-------------------|-------------------*||
-------------------|--------------------||


  W                   W                 
-------------------|-------------------|
-------------------|-------------------|
-------------------|-------------------|
-------------------|-------------------|


  W                 
-------------------|
-------------------|
-------------------|
-------------------|


  E  E  E  S S S E  S S S S S  
------------------------------|
------------------------------|
--2--2--2--2-2-2-2--2-2-2-2-2-|
------------------------------|


  E  E  E  S S S E  S S S S S  
------------------------------|
------------------------------|
--2--2--2--2-2-2-2--2-2-2-2-2-|
------------------------------|


  E  E  E  S S S E  S S S S S  
------------------------------|
------------------------------|
--2--2--2--2-2-2-2--2-2-2-2-2-|
------------------------------|


  E  E  E  S S S E  S S S S S  
------------------------------|
------------------------------|
--2--2--2--2-2-2-2--2-2-2-2-2-|
------------------------------|


  E  E  E  S S S E  S S S S S  
------------------------------|
------------------------------|
------------------------------|
--4--4--4--4-4-4-4--4-4-4-4-4-|


  E  E  E  S S S E  S S S S S  
------------------------------|
------------------------------|
--2---------------------------|
-----4--4--4-4-4-4--4-4-4-4-4-|


  E  E  E  S S S E  S S S S S  
------------------------------|
------------------------------|
--5---------------------------|
-----4--4--4-4-4-4--4-4-4-4-4-|


  E  E  E  S S S E  S S S S S  
------------------------------|
------------------------------|
--2---------------------------|
-----4--4--4-4-4-4--4-4-4-4-4-|


  E  E  E  S S S E  S S S S S  
------------------------------|
------------------------------|
--2--2--2--2-2-2-2--2-2-2-2-2-|
------------------------------|


  E  E  E  S S S E  S S S S S  
------------------------------|
------------------------------|
--2--2--2--2-2-2-2--2-2-2-2-2-|
------------------------------|


  E  E  E  S S S E  S S S S S  
------------------------------|
------------------------------|
--2--2--2--2-2-2-2--2-2-2-2-2-|
------------------------------|


  E  E  E  S S S E  S S S S S  
------------------------------|
------------------------------|
--2--2--2--2-2-2-2--2-2-2-2-2-|
------------------------------|


  E  E  E  S S S E  S S S S S  
------------------------------|
------------------------------|
------------------------------|
--4--4--4--4-4-4-4--4-4-4-4-4-|


  E  E  E  S S S E  S S S S S  
------------------------------|
------------------------------|
--2---------------------------|
-----4--4--4-4-4-4--4-4-4-4-4-|


  E  E  E  S S S E  S S S S S  
------------------------------|
------------------------------|
--5---------------------------|
-----4--4--4-4-4-4--4-4-4-4-4-|


  E  E  E  S S S E  S S S S S  
------------------------------|
------------------------------|
--2---------------------------|
-----4--4--4-4-4-4--4-4-4-4-4-|


  S S S S Q    S S E  S S E   
-----------------------------|
-----------------------------|
--2-2-2-2-2----2-2-2--2-2-2--|
-----------------------------|


  S S S S Q    S S E  S S E   
-----------------------------|
-----------------------------|
--4-4-4-4-4----4-4-4--4-4-4--|
-----------------------------|


  S S S S Q    S S E  S S E   
-----------------------------|
-----------------------------|
--2-2-2-2-2----2-2-2--2-2-2--|
-----------------------------|


  S S S S Q    S S E  S S E   
-----------------------------|
-----------------------------|
--4-4-4-4-4----4-4-4--4-4-4--|
-----------------------------|


  S S S S S S S S S S S S S S S S  
----------------------------------|
----------------------------------|
----------------------------------|
--5-5-5-5-5-5-5-5-5-5-5-5-5-5-5-5-|


  S S S S S S S S S S S S S S S S  
----------------------------------|
----------------------------------|
----------------------------------|
--7-7-7-7-7-7-7-7-7-7-7-7-7-7-7-7-|


  S S S S S S S S S S S S S S S S  
----------------------------------|
----------------------------------|
----------------------------------|
--4---4---4---4---4---4---4---4---|


  S S S S S S S S S S S S S S S S  
----------------------------------|
----------------------------------|
--1---1---1---1---1---1---1---1---|
----------------------------------|


  S S S S Q    S S E  S S E   
-----------------------------|
-----------------------------|
--2-2-2-2-2----2-2-2--2-2-2--|
-----------------------------|


  S S S S Q    S S E  S S E   
-----------------------------|
-----------------------------|
--4-4-4-4-4----4-4-4--4-4-4--|
-----------------------------|


  S S S S Q    S S E  S S E   
-----------------------------|
-----------------------------|
--2-2-2-2-2----2-2-2--2-2-2--|
-----------------------------|


  S S S S Q    S S E  S S E   
-----------------------------|
-----------------------------|
--4-4-4-4-4----4-4-4--4-4-4--|
-----------------------------|


  S S S S S S S S S S S S S S S S  
----------------------------------|
----------------------------------|
----------------------------------|
--5-5-5-5-5-5-5-5-5-5-5-5-5-5-5-5-|


  S S S S S S S S S S S S S S S S  
----------------------------------|
----------------------------------|
----------------------------------|
--7-7-7-7-7-7-7-7-7-7-7-7-7-7-7-7-|


  S S S S S S S S S S S S S S S S  
----------------------------------|
----------------------------------|
----------------------------------|
--4---4---4---4---4---4---4---4---|


  S S S S S S S S S S S S S S S S   
----------------------------------||
----------------------------------||
--1---1---1---1---1---1---1---1---||
----------------------------------||




Duration Legend
---------------
W - whole
H - half
Q - quarter
E - 8th
S - 16th
T - 32nd
X - 64th
. - note dotted
|-n-|  - n-tuplets


Tablature Legend
----------------
L - tied note
x - dead note
g - grace note
(n) - ghost note
> - accentuded note
NH - natural harmonic
AH - artificial harmonic
TH - tapped harmonic
SH - semi harmonic
PH - pitch harmonic
h - hammer on
p - pull off
b - bend
br - bendRelease
pb - preBend
pbr - preBendRelease
brb - bendReleaseBend
\n/ - tremolo bar dip
\n - tremolo bar dive
-/n - tremolo bar Release up
/n\ - tremolo bar inverted dip
/n - tremolo bar return
-\n - tremolo bar Release down
S - shift slide
s - legato slide
/ -  slide into from below or out of upwards
\ -  slide into from above or out of downwards
~ - vibrato
W - wide vibrato
tr - trill
TP - tremolo picking
T - tapping
S - slap
P - pop
< - fade in
^ - brush up
v - brush down





Comments


Popular After Forever tabs & chords
Boundaries Are Open Bass Tabs
Emphasis Bass Tabs
Monolith Of Doubt Bass Tabs
Monolith Of Doubt 1 Bass Tabs
Black Tomb Tabs
Equally Destructive Tabs
Follow In The Cry Tabs
Leaden Legacy Tabs
Monolith Of Doubt Tabs
My Pledge Of Allegiance Tabs


Song lyrics



↑ Back to top | Tablatures and chords are parodies/interpretations of the original songs. You may use it for private study, scholarship, research or language learning purposes only
© 2014 AZChords.com Contact us | Privacy policy | DMCA | Add/correct tabs | Request tabs | Top 50 tabs