» » »

Afroman, Colt Bass

Artists:  A B C D E F G H I J K L M N O P Q R S T U V W X Y Z # 

Colt Bass

(ver. 1)
Afroman Tabs
 Rating:
4/5 (4 votes)
    Colt lessons Tabs too difficult? Try these video lessons and learn fast

WWW.AZCHORDS.COM | Afroman Bass tabs - Colt Bass tabs (ver. 1)


                AFROMAN "COLT-45"


Standard Tuning (E,A,D,G)
h: hammer-on
p: pull-off
/: slide up
\: slide down

   
     This is the main line that runs all the way through the song.
 There are lots of variations of this line over and over again.


G:-------------------------------------------------------------
D:-----------------------------5h7-7-0-7---------------------
A:-0----0--3h5---5--5h7----7-----------------------------------
E:-------------------------------------------------------------

G:-------------------------------------------------------------
D:-------------------------------------------------------------
A:-0----0--3h5---5--5h7----7-6-5-------------------------------
E:--------------------------------8-7--------------------------
            
Submit corrections

↑ Back to top | Afroman Bass for Colt. Lyrics for acoustic guitar and electric guitar. Tablatures and chords are parodies/interpretations of the original songs. You may use it for private study, scholarship, research or language learning purposes only