» » »

Afroman, Because I Got High Tabs (ver.1)

Artists:  A B C D E F G H I J K L M N O P Q R S T U V W X Y Z # 

Because I Got High Tabs (ver.1)

Afroman Tabs
 Rating:
2.9/5 (9 votes)
Because I Got High lessons Tabs too difficult? Try these video lessons and learn fast
1
                -------------------------------------------------------------------------------
                             SONG NAME - Band Name
-------------------------------------------------------------------------------

Tuning:(STANDARD)   STARTS OFF WITH CHORDS IN A FUNK MODE ITS AS FOLLOWING
 G / C / D7  BACK TO G /C/ D7/ G  THAN SOLO STARTS

e|- 2/3--2/3----2/3---3---3--3B--3--0---5------10--9----7---5--5----3------------|
B|-------------------------------------------------------------------------------|
G|-------------------------------------------------------------------------------|
D|-------------------------------------------------------------------------------|
A|-------------------------------------------------------------------------------|
E|-------------------------------------------------------------------------------|

e|--5----3--------------------3----5----5B---3------3----5/7----7--7---5-------|
B|----------5---3-----3----5---------------------5-----------------------------|
G|-----------------------------------------------------------------------------|
D|-----------------------------------------------------------------------------|
A|-----------------------------------------------------------------------------|
E|-----------------------------------------------------------------------------|

e|--3----5/7-----10-----8--8----12---12---10---8--7--7--8--7--5---7----5-------|
B|-----------------------------------------------------------------------------|
G|-----------------------------------------------------------------------------|
D|-----------------------------------------------------------------------------|
A|-----------------------------------------------------------------------------|
E|-----------------------------------------------------------------------------|

e|--3--3-----------------------------------------------------------------------|
B|----------5---3----5----3----1-----------------------------------------------|
G|----------------------------------4---2----0----0----------------------------|
D|-----------------------------------------------------------------------------|
A|-----------------------------------------------------------------------------|
E|-----------------------------------------------------------------------------|
 NOW BACK TO CHORDS  SOLO COMES UP A FEW MORE TIMES
 G
I WAS GONNA COPYRIGHT MY NAME
G            C
BUT THAN I GOT HIGH
C              D7
I NEVER THOUGHT IDE SEE FAME
D7            G
BUT THAN I GOT HIGH
G                    G
MY WESTSIDES A SKATEBOARD COMPANY
D           C
AND I KNOW WHY
  C           G
CAUSE I GOT HIGH
 G           D
CAUSE I GOT HIGH
 D           G
CAUSE I GOT HIGH

AND SO ON THREW OUT THE SONG GONNNA TRY TO FIGUER OUT SECOND SOLO

B = BEND
/ SLIDE
            
Submit corrections

comments powered by Disqus
↑ Back to top | Afroman Tabs for Because I Got High. Lyrics for acoustic guitar and electric guitar. 1 Tablatures and chords are parodies/interpretations of the original songs. You may use it for private study, scholarship, research or language learning purposes only