» » »

A Flock Of Seagulls, Wishing Tabs (ver.1)

Artists:  A B C D E F G H I J K L M N O P Q R S T U V W X Y Z # 

Wishing Tabs (ver.1)

A Flock Of Seagulls Tabs
 Rating:
4/5 (4 votes)
Wishing lessons Tabs too difficult? Try these video lessons and learn fast
1
                 These tabs are based on the live performances.

| Drum starts|

Bass part for beginning

x ---                                     x ----|
x ---                                     x ----|
x 3--                                     x 6---|
x ---        Or sometimes it will be      x ----|    6 times

Guitar comes in

x --------------------|
x --------------------|
x --------------------|
x 11---11---13 ---13--|
x 11---11---13 ---13--|
x  9----9 ---11----11-|   Play this 2 times

x-------------------------------------|
x-------------------------------------|
x-------------------------------------|
x 11----11---- --13----13-------------|
x 11--11----11-- 13--13----13---------|
x  9-------------11-------------------|          Play this 2 times

x  ----------------------6-6-6-------------|
x  -------------------- 6------------------|
x  ----------------------------------------|
x  6----8--- 6----8-------------- 6----- 8-|
x  6----8--- 6----8-------------- 6 -----8-|
x  4----6--- 4----6----- ---------4 -----6-|

x --------------------|
x --------------------|
x --------------------|
x 11---11---13 ---13--|
x 11---11---13 ---13--|
x  9----9 ---11----11-|   Play this 2 times

x-------------------------------------|
x-------------------------------------|
x-------------------------------------|
x 11----11---- --13----13-------------|
x 11--11----11-- 13--13----13---------|
x  9-------------11-------------------|          Play this 2 times

x  ----------------------6-6-6-------------|
x  -------------------- 6------------------|
x  ----------------------------------------|
x  6----8--- 6----8-------------- 6----- 8-|
x  6----8--- 6----8-------------- 6 -----8-|
x  4----6--- 4----6----- ---------4 -----6-|


x --------------------|
x --------------------|
x --------------------|
x 11---11---13 ---13--|
x 11---11---13 ---13--|
x  9----9 ---11----11-|   Play this 2 times

x------------|
x --16-14----|
x 15---------|
x --------16-|
x------------|
x------------|  Play 6 times
continued
x----------------|
x---16-14---16\8-|
x 15-------------|
x----------------|
x----------------|

x --------------------|
x --------------------|
x --------------------|
x 11---11---13 ---13--|
x 11---11---13 ---13--|
x  9----9 ---11----11-|   Play this 2 time

x-------------------------------------|
x-------------------------------------|
x-------------------------------------|
x 11----11---- --13----13-------------|
x 11--11----11-- 13--13----13---------|
x  9-------------11-------------------|          Play this 2 times

x  ----------------------6-6-6-------------|
x  -------------------- 6------------------|
x  ----------------------------------------|
x  6----8--- 6----8-------------- 6----- 8-|
x  6----8--- 6----8-------------- 6 -----8-|
x  4----6--- 4----6----- ---------4 -----6-|

x --------------------|
x --------------------|
x --------------------|
x 11---11---13 ---13--|
x 11---11---13 ---13--|
x  9----9 ---11----11-|   Play this 2 time


An E-Bow is used for this part
x---------------------------------------------------------------------|
x---------------------------------------------------------------------|
x---------------------------------------------------------------------|
x---------------------------------------------------------------------|
x---------------------------------------------------------------------|
x 9----4-----9------11-----6------9-----4------6-----4-------2------9-|
            
Submit corrections

comments powered by Disqus
↑ Back to top | A Flock Of Seagulls Tabs for Wishing. Lyrics for acoustic guitar and electric guitar. 1 Tablatures and chords are parodies/interpretations of the original songs. You may use it for private study, scholarship, research or language learning purposes only