» » »

Space Age Love Song Tabs (ver.2)

Artists:  A B C D E F G H I J K L M N O P Q R S T U V W X Y Z # 

Space Age Love Song Tabs (ver.2)

A Flock Of Seagulls
Rating:
4/5 (2 votes)

Hard to play? Try these video lessons and learn fast.
                -------------------------------------------------------------------------------
                             SPACE AGE LOVE SONG - A Flock of Seagulls
-------------------------------------------------------------------------------

Tuning: standard.

Pretty repetitive song.

The synth chords go D, Bm, A, D the whole time.


e|2-------|  (there is a quick rhythm on these notes... 
B|---3----|          ...just listen to the song)
G|------2-|
D|--------|
A|--------|
E|--------|(x16)


e|0-------|
B|---2----|
G|------2-|
D|--------|
A|--------|
E|--------|(x15)

e|2-------|  (there is a quick rhythm on these notes... 
B|---3----|          ...just listen to the song)
G|------2-|
D|--------|
A|--------|
E|--------|(x32)

e|0-------|
B|---2----|
G|------2-|
D|--------|
A|--------|
E|--------|(x4)

e|12-------|
B|---14----|
G|------14-|
D|---------|
A|---------|
E|---------|(x4)


e|14-------|
B|---15----|
G|------14-|
D|---------|
A|---------|
E|---------|(x8)

e|2-------|  (there is a quick rhythm on these notes... 
B|---3----|          ...just listen to the song)
G|------2-|
D|--------|
A|--------|
E|--------|(x16)

e|0-------|
B|---2----|
G|------2-|
D|--------|
A|--------|
E|--------|(x4)

e|12-------|
B|---14----|
G|------14-|
D|---------|
A|---------|
E|---------|(x4)

e|14-------|14-------|14-------|15-------|
B|---15----|---15----|---15----|---15----|
G|------14-|------14-|------14-|------14-|
D|---------|---------|---------|---------|
A|---------|---------|---------|---------|
E|---------|---------|---------|---------| (repeat to end)

|=========================================================================|
            
Hard to play? Try these video lessons and learn fast. | Correct




comments powered by Disqus
↑ Back to top | Tablatures and chords are parodies/interpretations of the original songs. You may use it for private study, scholarship, research or language learning purposes only