» » »

File Bass tabs (ver.1)

Artists:  A B C D E F G H I J K L M N O P Q R S T U V W X Y Z # 

File Bass tabs (ver.1)

A Fire Inside
Rating:
0/5 (0 votes)

Hard to play? Try these video lessons and learn fast.
                G]---------------------------------------------------- INTRO
D]----------------------------------------------------
A]----------------------------------------------------
E]-77775-77775-77775-33335-

G]-----------------------------------------7---9--11--9--7 Intro+Solo Thing
D]---------------------------------7----7---9---9----------------7
A]----------------------------7-9---9-----------------------------
E]-77775-77775-7-10-----------------------------------------

Verse(x2)
G]------------------------------------------
D]------------------------------------------
A]------------------------------------------
E]-77775-77775-77775-33335---

Chorus(x4)
G]-------------------------------------------
D]-------------------------------------------
A]--------555------------------------------
E]-777--------555-777------------------

During Solo
G]-----------------------------------------
D]-----------------------------------------
A]-999999997-99999997-99997-9997-97-97
E]----------------------------------------

Outro
G]---------------------------------------
D]---------------------------------------
A]----------5555-----------------7--9--------5555-----------------7--9--------5555-----------
E]--7777--------5555--7--10-------7777-------5555--7---10------7777-------5555-777

Order
Intro x1
Verse x2
Chorus x4
Verse x2
Chorus x4
During Solo x1
Verse x2
Chorus x4
Outro x1
            
Hard to play? Try these video lessons and learn fast. | Correct




comments powered by Disqus
↑ Back to top | Tablatures and chords are parodies/interpretations of the original songs. You may use it for private study, scholarship, research or language learning purposes only