» » »

Whisper Tabs (ver.2)

Artists:  A B C D E F G H I J K L M N O P Q R S T U V W X Y Z # 

Whisper Tabs (ver.2)

A Fine Frenzy
Rating:
0/5 (0 votes)

Hard to play? Try these video lessons and learn fast.
                (Intro)
Hey guys so this is my first tab ever and i know it isnt completely acurate but it is 
close. I did it by ear and yeah i hope you enjoy. this is just the intro the chords are A 
G and D for the rest of the song.

Capo 1st



Intro
e|-10-----10--------8------10----------------------------|
B|----------------------------11-------11-------11-------|
G|----10------10-------10-----------10---10---10--10-----|
D|-------------------------------------------------------|
A|-0-------0--------0-------0-0--------------------------|
E|-------------------------------------------------------|


e|-10----10----8----10-8--------------|
B|------------------------11----------|
G|----10----10---10-------------------|  x2
D|-0------0----0-----0-0--------------|
A|------------------------------------|
E|------------------------------------|


e|-------------------------------------|
B|-------3--6--4p3-----4-3p0--3--------|
G|-3--5-------------5---------------3--| x2
D|-------------------------------5-----|
A|-0--0--0--0--0-----------------------|
E|------------------0---------3--------|
            
Hard to play? Try these video lessons and learn fast. | Correct




comments powered by Disqus
↑ Back to top | Tablatures and chords are parodies/interpretations of the original songs. You may use it for private study, scholarship, research or language learning purposes only