» » »

A Fine Frenzy, The Well Tabs (ver.1)

Artists:  A B C D E F G H I J K L M N O P Q R S T U V W X Y Z # 

The Well Tabs (ver.1)

A Fine Frenzy Tabs
Rating:
5/5 (1 vote)
Hard to play? Try these video lessons and learn fast.
                
Tuning: Standard

Capo 6

Chords used:
C    x32010
Dm   xx0231
F    133211
G    320033
Gsus 300033

Introduction:
e|-0--0--------------0--0----------------3--3---1---1---0--------------------|
B|--------1---1---1---------1---1---1-----------------------1---1---1---1----|
G|---------------------------------------------------------------------------|
D|---------------------------------------------------------------------------|
A|-3----3---3---3----3----3---3---3----3------3---3---3---3---3---3---3------|
E|---------------------------------------------------------------------------|


Verse 1:
e|-0--0--------------0--0----------------3--3---1---1---0--------------------|
B|--------1---1---1---------1---1---1-----------------------1---1---1---1----|
G|---------------------------------------------------------------------------|
D|---------------------------------------------------------------------------|
A|-3----3---3---3----3----3---3---3----3------3---3---3---3---3---3---3------|
E|---------------------------------------------------------------------------|
  Standing still I'm gonna, Stand still. Stiller than the stones.

e|-3--3--------------3--3----------------3--3---1---1---0--------------------|
B|-1------1---1---1---------1---1---1-----------------------1---1---1---1----|
G|---------------------------------------------------------------------------|
D|---------------------------------------------------------------------------|
A|-3----3---3---3----3----3---3---3----3------3---3---3---3---3---3---3------|
E|---------------------------------------------------------------------------|
   You know I will, you can test my will, it won't go breaking with my bones.

e|-0--0--------------0--0----------------------------------------------------|
B|-1--1--------------1--1----------------------------------1---1---1---1-----|
G|--------0---0---0---------0---0---0---0--0---------------------------------|
D|---------------------------------------------3---3---2---------------------|
A|-3----3---3---3----3----3---3---3-----3----3---3---3---3---3---3---3-------|
E|---------------------------------------------------------------------------|

e|-0--0--------------0--0----------------3--3---1---1---0--------------------|
B|--------1---1---1---------1---1---1-----------------------1---1---1---1----|
G|---------------------------------------------------------------------------|
D|---------------------------------------------------------------------------|
A|-3----3---3---3----3----3---3---3----3------3---3---3---3---3---3---3------|
E|---------------------------------------------------------------------------|
  Take a picture, take a lasting look of a girl you once adored.

e|-3--3--------------3--3----------------3--3---1---1---0--------------------|
B|-1------1---1---1---------1---1---1-----------------------1---1---1---1----|
G|---------------------------------------------------------------------------|
D|---------------------------------------------------------------------------|
A|-3----3---3---3----3----3---3---3----3------3---3---3---3---3---3---3------|
E|---------------------------------------------------------------------------|
   Hide it somewhere in your secret book, think of me no more.

e|-0--0--------------0--0----------------------------------------------------|
B|-1--1--------------1--1---------------1------------------1---1---1---1-----|
G|--------0---0---0---------0---0---0------0---------------------------------|
D|---------------------------------------------3---3---2---------------------|
A|-3----3---3---3----3----3---3---3-----3----3---3---3---3---3---3---3-------|
E|---------------------------------------------------------------------------|

Chorus

C                           Dm
Following my wish into the well,
F                              C
Down into your deepest dark I fell.
C                                    Dm
I'm drowning with your kisses in the well,
   F                
I look to you for saving but you're
C               G  Gsus
Saving someone else.

e|-3--3--------------3--3----------------3--3---1---1---0--------------------|
B|-1--1---1---1---1--1--1---1---1---1-----------------------1---1---1---1----|
G|---------------------------------------------------------------------------|
D|---------------------------------------------------------------------------|
A|-3----3---3---3----3----3---3---3----3------3---3---3---3---3---3---3------|
E|---------------------------------------------------------------------------|


Verse 2
e|-0--0--------------0--0----------------3--3---1---1---0--------------------|
B|--------1---1---1---------1---1---1-----------------------1---1---1---1----|
G|---------------------------------------------------------------------------|
D|---------------------------------------------------------------------------|
A|-3----3---3---3----3----3---3---3----3------3---3---3---3---3---3---3------|
E|---------------------------------------------------------------------------|
  Go on home, won't you go home? Go where you belong.

e|-3--3--------------3--3----------------3--3---1---1---0--------------------|
B|-1------1---1---1---------1---1---1-----------------------1---1---1---1----|
G|---------------------------------------------------------------------------|
D|---------------------------------------------------------------------------|
A|-3----3---3---3----3----3---3---3----3------3---3---3---3---3---3---3------|
E|---------------------------------------------------------------------------|
   Left alone I'm better left alone, the one you didn't want.

e|-0--0--------------0--0----------------------------------------------------|
B|-1--1--------------1--1---------------1------------------1---1---1---1-----|
G|--------0---0---0---------0---0---0------0---------------------------------|
D|---------------------------------------------3---3---2---------------------|
A|-3----3---3---3----3----3---3---3-----3----3---3---3---3---3---3---3-------|
E|---------------------------------------------------------------------------|
                                        Standing still I'm gonna stand still.

e|-0--0--------------0--0----------------3--3---1---1---0--------------------|
B|--------1---1---1---------1---1---1-----------------------1---1---1---1----|
G|---------------------------------------------------------------------------|
D|---------------------------------------------------------------------------|
A|-3----3---3---3----3----3---3---3----3------3---3---3---3---3---3---3------|
E|---------------------------------------------------------------------------|
  Standing still I'm gonna, Stand still. Stiller than the stones.

e|-3--3--------------3--3----------------3--3---1---1---0--------------------|
B|-1------1---1---1---------1---1---1-----------------------1---1---1---1----|
G|---------------------------------------------------------------------------|
D|---------------------------------------------------------------------------|
A|-3----3---3---3----3----3---3---3----3------3---3---3---3---3---3---3------|
E|---------------------------------------------------------------------------|
   You know I will, you can test my will, it won't go breaking with my bones.

e|-0--0--------------0--0---------------1------------------------------------|
B|-1--1--------------1--1----------------------------------1---1---1---1-----|
G|--------0---0---0---------0---0---0------0---------------------------------|
D|---------------------------------------------3---3---2---------------------|
A|-3----3---3---3----3----3---3---3-----3----3---3---3---3---3---3---3-------|
E|---------------------------------------------------------------------------|

C                           Dm
Following my wish into the well,
F                              C
Down into your deepest dark I fell.
C                                    Dm
I'm drowning with your kisses in the well,
   F                
I look to you for saving but you're
C               G  Gsus
Saving someone else.

Dm               F
  Oh and no one knows
C          G  Gsus
  No one knows

C                           Dm
Following my wish into the well,
F                              C
Down into your deepest dark I fell.
            

comments powered by Disqus
↑ Back to top | A Fine Frenzy Tabs for The Well. Lyrics for acoustic guitar and electric guitar. Tablatures and chords are parodies/interpretations of the original songs. You may use it for private study, scholarship, research or language learning purposes only