» » »

Afi, Yurf Rendenmein Bass tabs (ver.1)

Artists:  A B C D E F G H I J K L M N O P Q R S T U V W X Y Z # 

Yurf Rendenmein Bass tabs (ver.1)

Afi Tabs
Rating:
0/5 (0 votes)
Yurf Rendenmein lessons Tabs too difficult? Try these video lessons and learn fast
                This song's also on Very Pround of Ya, but this is the ATASF version


listen close to the rhythms, a lot of the notes are played close together


Intro:

G|-----|
D|-----|
A|--3--|
E|-----|

G|---------------------------------------------------------------|
D|---------------------------------------------------------------|
A|-3-3-3-3-3-3-3-6-6-6-6-6-6-6-6---------------------------------| (x2)
E|-------------------------------6-6-6-6-6-6-6-6-4-4-4-4-4-4-4-4-|

G|-------------------------------------------------------------------------------------|
D|-10-10-8-8-10-13-13-10-10-13-16-16-15-13-10-10-10-10-10-10-10-8----8-8-6---6-6-4---6-|
A|----------------------------------------------------------------10-------8-------6---|
E|-------------------------------------------------------------------------------------|

Verse:

G|-----------------------------------------------------------------|
D|-----------------------------------------------------------------|
A|-3-3-3-3-3-3-3-3-------------------------------------------------|
E|-----------------4-4-4-4-4-4-4-4-6-6-6-6-6-6-6-6-4-4-4-4-4-4-4-4-|

G|-----------------------------------------------------------------|
D|-----------------------------------------------------------------|
A|-3-3-3-3-3-3-3-3---------------------------------6-6-6-6-6-6-6-6-|
E|-----------------4-4-4-4-4-4-6-6-6-6-6-6-6-6---------------------|

Chorous:

G|-----------------------|
D|-----------------6-----|
A|-3-3-3-3-3-3-3-3---6-8-| (x3)
E|-----------------------|

G|--------------------------------|
D|--------------------------------|
A|-1-1-1-1-1-1-1-1-3-3-3-3-3-3-3-3|
E|--------------------------------|

G|-----------------------|
D|-----------------6-----|
A|-3-3-3-3-3-3-3-3---6-8-| (x3)
E|-----------------------|

G|---------------------------------|
D|---------------------------------|
A|-1-1-1-1-1-1-1-1-3-3-3-3-3-3-3-3-| (x2)
E|---------------------------------|
            
Submit corrections

comments powered by Disqus
↑ Back to top | Afi Bass for Yurf Rendenmein. Lyrics for acoustic guitar and electric guitar. Tablatures and chords are parodies/interpretations of the original songs. You may use it for private study, scholarship, research or language learning purposes only