>
 >
 >
Wester

Wester Guitar Tabs

Afi - Wester chords, tabs, tablatures, lyrics

Guitar lessons | Add/correct | Request | Top 50 tabs Artists:  A B C D E F G H I J K L M N O P Q R S T U V W X Y Z 0-9

Wester Guitar Tabs – Afi

CD, Sheet music, Poster

Do you like Wester? Share with your friends now
TabsTabs v2Tabs v3
I tabbed it by ear and I did my best and a lot of people were 
it so I tabbed it.

intro
e--------------------------------------------------------
b----------3--4--6------------4--3--3----------3--4--6---
g----------3--3--3------------3--3--3----------3--3--3---then...
d--5-5-----------------3-3---------------5-5--------------
a--3-3-----------------1-1---------------3-3--------------
E---------------------------------------------------------

e-------------   do all
b-------------   this 2
g-------------   times.
d----------8-8           then   
a--6-6--8--6-6           a-88888888-88888888-10----
E--4-4--6-----           E-66666666-66666666--8----
                         PM- - - - -!

1st part of verse is bass, then
e-------------    ----------------------------------
b-------------    ----------------------------------
g-------------    ----------------------------8-8---
d--3--6-8--3--    --5-5-5---------8----5-5-5--6-6--8
a-------------    --3-3-3---6--8--6----3-3-3-------6
E-------------    ----------4--6--------------------

e---------------------------------------
b---------------------------------------
g---------------------------------------
d--5-5-5---------8----------------------
a--3-3-3---6--8--6-----6--6-6--5-5-5-5--
E----------4--6--------4--4-4--3-3-3-3--

Chorus
e----------------------------------           e------------
b----------------------------------           b--1-----4--3
g----------------------------------           g--0-----5--3
d--5-5-5---8-8-8----------------8--  x2  then  
a--3-3-3---6-6-6---8-8-8---6-6--6--
E------------------6-6-6---4-4-----

e--------------------------------------------------
b---------3--4--6----------4--3--3----------3--4--6
g---------3--3--3----------3--3--3----------3--3--3 then...
d--5-5---------------3-3--------------5-5-----------
a--3-3---------------1-1--------------3-3-----------
E---------------------------------------------------

e-------------
b-------------
g-------------
d----------8-8  all 1 time  then   
a--6-6--8--6-6                  a-88888888-88888888-10----
E--4-4--6-----                  E-66666666-66666666--8----
                                PM- - - - -!

verse 2
e----------------------------------
b----------------------------------
g----------------------------8-8---
d--5-5-5---------8----5-5-5--6-6--8
a--3-3-3---6--8--6----3-3-3-------6
E----------4--6--------------------

e---------------------------------------
b---------------------------------------
g---------------------------------------
d--5-5-5---------8----------------------
a--3-3-3---6--8--6-----6--6-6--5-5-5-5--
E----------4--6--------4--4-4--3-3-3-3--

Chorus
e----------------------------------           e-----------
b----------------------------------           b--1-----4--
g----------------------------------           g--0-----5--
d--5-5-5---8-8-8----------------8--  x4  then  
a--3-3-3---6-6-6---8-8-8---6-6--6--
E------------------6-6-6---4-4-----

BRIDGE
e------------------------------
b------------------------------
g------------------------------    x 6
d--5--3--6--5-5----6--5--8--3-3
a--3--3--3--3-3----3--3--6--1-1
E------------------------------

e------------        ----------------
b------------        ----------------
g------------  x 4   ----------------
d--5-----8---        ----------------
a--3--6--6--8        -666666666666--7
E-----4-----6        -444444444444--5

Chorus
e----------------------------------           e-----------
b----------------------------------           b--1-----4--
g----------------------------------           g--0-----5--
d--5-5-5---8-8-8----------------8--  x4  then  
a--3-3-3---6-6-6---8-8-8---6-6--6--
E------------------6-6-6---4-4-----





Comments


Popular Afi tabs & chords
Miss Murder 2 Bass Tabs
Soap Box Derby 2 Bass Tabs
Sts Hidden Song Bass Tabs
Your Name Here 2 Bass Tabs
This Time Imperfect Chords
Dancing Through Sunday (Solo) Tabs
Halloween 3 Tabs
Keepin Out Of Direct Sunlight Tabs
Morning Star Tabs
Values Here Tabs


Song lyrics



↑ Back to top | Tablatures and chords are parodies/interpretations of the original songs. You may use it for private study, scholarship, research or language learning purposes only
© 2014 AZChords.com Contact us | Privacy policy | DMCA | Add/correct tabs | Request tabs | Top 50 tabs