» » »

Afi, Three Reasons Tabs (ver.1)

Artists:  A B C D E F G H I J K L M N O P Q R S T U V W X Y Z # 

Three Reasons Tabs (ver.1)

Afi Tabs
Rating:
0/5 (0 votes)
Three Reasons lessons Tabs too difficult? Try these video lessons and learn fast
                ---------------------------------------------

|---------------------------------------------|
|---------------------------------------------|
|--------------3------------------------------|
|-0------------3------------1-------------0---|
|-0------------1------------1-------------0---|
|-0-------------------------1-------------0---|
  let "roar" throughout- HEAVY DISTORTION- HEAVY LOWS 

|------------------------------------------------------|
|------------------------------------------------------|
|----------------3-3-3---------------------------------|
|-0-0-0----------3-3-3----------1-1-1-1-1---------0-0--|
|-0-0-0----------1-1-1----------1-1-1-1-1---------0-0--|
|-0-0-0-------------------------1-1-1-1-1---------0-0--|
                                    PM-----------------

off guitar- only bass

lead guitar fill:
|-----10----10---------7----7---------9----9---9---5---5---5---5---5---5--5---
----|
|---6-----6-----6----6----6----6----6---6---6---------------------------------
----------|
|-7-----------------7---------------7-----------------------------------------
---------------|
|-----------------------------------------------------------------------------
-----------------|
|-----------------------------------------------------------------------------
-----------------|
|-----------------------------------------------------------------------------
-----------------|

cont'd
|-----10-----10--------6---6---6---6---6---6---6---6--|
|---6-------6-------6---6---6---6---6---6---6---6---6--|
|-7-------7-------7-----7---7---7---7---7---7---7---7--|
|---------------------------------------------------------------|
|---------------------------------------------------------------|
|---------------------------------------------------------------|

|-------------------------------------------------------------------------|
|-------------------------------------------------------------------------|
|-------------------------------------------------------------------------|
|--1--1--1--1--1--1--1--1--1--1--1--1--1--0--0--0--0--0--0--0--0--0--0----|
|--1--1--1--1--1--1--1--1--1--1--1--1--1--0--0--0--0--0--0--0--0--0--0----|
|--1--1--1--1--1--1--1--1--1--1--1--1--1--0--0--0--0--0--0--0--0--0--0----|
      PM------------------------------------------------------------------

chourus
|---------------------------------------------|
|---------------------------------------------|
|--------------3------------------------------|    2x
|-0------------3------------1-------------0---|
|-0------------1------------1-------------0---|
|-0-------------------------1-------------0---|
|----------------------------------------------------------------|
|----------------------------------------------------------------|
|----------------------------------------------------------------|
|-0----------3----------5-----------1--1--1--0----------------1--|    2x
|-0----------3----------5-----------1--1--1--0----------------1--|
|-0----------3----------5-----------1--1--1--0----------------1--|
                                     ^one beat hesitation

|-----------------------------------------------------------|
|-----------------------------------------------------------|
|-----------------------------------------------------------|
|--0---------------1----------------0--0--0--0--0--0--0--0--|
|--0---------------1----------------0--0--0--0--0--0--0--0--|
|--0---------------1----------------0--0--0--0--0--0--0--0--|
        let ring............ then  PM----------------------

chorus again 2x 

outro
|--------------------------------------------------|
|--------------------------------------------------|
|--------------------------3--3--3--3--3--3--3--3--|
|--0--0--0--0--0--3--3--3--3--3--3--3--3--3--3--3--|   x3
|--0--0--0--0--0--3--3--3--1--1--1--1--1--1--1--1--|
|--0--0--0--0--0--3--3--3--------------------------|

ending
|--------------------------------------------|
|--------------------------------------------|
|--------------------------------------------|
|--1--1--1--1--1--1--1--1--0----0----0----0--|
|--1--1--1--1--1--1--1--1--0----0----0----0--|
|--1--1--1--1--1--1--1--1--0----0----0----0--|
                                













Kent Holindrake
            

comments powered by Disqus
↑ Back to top | Afi Tabs for Three Reasons. Lyrics for acoustic guitar and electric guitar. Tablatures and chords are parodies/interpretations of the original songs. You may use it for private study, scholarship, research or language learning purposes only