>
 >
 >
The Leaving Song Part Ii 2

The Leaving Song Part Ii 2 Guitar Tabs

Afi - The Leaving Song Part Ii 2 chords, tabs, tablatures, lyrics

Guitar lessons | Add/correct | Request | Top 50 tabs Artists:  A B C D E F G H I J K L M N O P Q R S T U V W X Y Z 0-9

The Leaving Song Part Ii 2 Guitar Tabs – Afi

CD, Sheet music, Poster

Do you like The Leaving Song Part Ii 2? Share with your friends now
TabsTabs v2Tabs v3
Tuning: Tune Down 1/2: (low to high) Eb-Ab-Db-Gb-Bb-Eb

Intro(Distortion)
   T   T                     T   T      T  T                   T   T----|    T
|----------h14p10/14-------------19--|  |-------h14p10/14------------17/19p15------h14---h12-|
|------20-----------h15--------------|  |----20----------h15-------------------22------------|
|----------------------h16---19------|4x|-------------------h16--19--------------------------|
|------------------------------------|  |----------------------------------------------------|
|--19--------------------------------|  |-19-------------------------------------------------|
|------------------------------------|  |----------------------------------------------------|
  
Verse(Distortion)
|-----------------------------------------------------|
|-----------------------------------------------------|
|--12--------11--------9--------9---9---9---9---------|2x
|--x---------x---------x--------x---x---x---x---------|
|--10--------9---------7--------7---7---7---7---------|
|--0-----0---0-----0---0--------0---0---0---0---0---0-|

|---------------------------------------------------------|
|---------------------------------------------------------|
|--12--------14~--/16-----------16--16--16--16--16--------|
|--x---------x------------------x---x---x---x---x---------|
|--10--------12~--/14-----------14--14--14--14--14--0---0-|
|--0-----0---0---------0--------0---0---0---0---0---0---0-|

|---------------------------------------------------|
|---------------------------------------------------|
|--7-------7----7---7-------------------------------|
|--7-------7----7---7-------5---5---5---5/7---7---7-|
|--5-------5----5---5-------5---5---5---5/7---7---7-|
|--5-------5----5---5---0---3---3---3---3/5---5---5-|

Pre-Chorus(Distortion)
|--12--x--x--15--x--x--14--x--x--10--x--x--14--x--12--x-|
|-------------------------------------------------------|
|-------------------------------------------------------|
|-------------------------------------------------------|
|-------------------------------------------------------|
|-------------------------------------------------------|

|--12--x--x--15--x--x--14--x--x--10--10--10--14--14--12--0-|
|----------------------------------------------------------|
|----------------------------------------------------------|
|----------------------------------------------------------|
|----------------------------------------------------------|
|----------------------------------------------------------|                             Pick
                                                                                   1/4   Slide
|--12--0--0--15--0--0--14--0--0--10--0--0--14--0--12--0---12--12--12/15--15--14----14b-------|
|---------------------------------------------------------12--12--12/15--15--15----15b-------|
|--------------------------------------------------------------------------------------------|
|--------------------------------------------------------------------------------------------|
|--------------------------------------------------------------------------------------------|
|----------------------------------------------------------------------------------------x\\\|

Chorus(Distortion)
|----------------------------------------------------------------------------------------------|
|----------------------------------------------------------------------------------------------|
|-------------------------------------------------------------------------------------11/12/14-|
|--2------2-----2---2-----5--------4h5---4-----2-----2---2---2-----2---2-----5--------x--------|
|--2------2-----2---2-----5--------5-----5-----2-----2---2---2-----2---2-----5--------9-/10/12-|
|--0------0-----0---0-----3-----0--------------0-----0---0---0-----0---0-----3-----0-----------|

|---------------------------------------------------------------5----------|
|--------------------------------------------------------5--------5--------|
|-----------------------------------------------5----------5--------5------|
|--2------2-----2---2-----5--------4h5---4-----------------------------7/9-|
|--2------2-----2---2-----5--------5-----5---------------------------------|
|--0------0-----0---0-----3-----0-------------5----5--5------5-------------|
PM                                            -    -  -      -

|-7----0--0---0-------------------------|
|-7----0--0---0-------------------------|
|-8----0--0---0---------7/9--9--9--9--9-|
|-9-----------2---------x----x--x--x--x-|
|-9-----------2---------5/7--7--7--7--7-|
|-7-----------0---------0----0--0--0--0-|

Bridge(Distortion)
|---------------------------------------------|
|---------------------------------------------|
|---------------------------------------------|3x
|-2--2--2--2-----2--2--2-----2--2--2--2--2--2-|
|-2--2--2--2-----2--2--2-----2--2--2--2--2--2-|
|-0--0--0--0-----0--0--0-----0--0--0--0--0--0-|
PM-  -  -  -     -  -  -     -  -  -  -  -  -

|----------------------------------|
|----------------------------------|
|----------------------------------|
|-----------------------2--2--2--2-|
|--------------2--2--2--2--2--2--2-|
|--------------0--0--0--0--0--0--0-|
PM             -  -  -

|--------------------------------------------------------------------------------------------------|
|--------------------------------------------------------------------------------------------------|
|-----4------------------5-------------------------------------------4/5---4----------------0------|
|-----x------------------x------------------------------7------------x-----x---------------------0-|
|-----2------------------3------------------------------5------------2/3---2-----------------------|
|-----------0--0--0--0-----------0--0--0--0--0--0--0----------0--0---------0-------0--0--0---------|
PM          -  -  -  -           -  -  -  -  -  -  -          -  -                 -  -  -

|--------------------------------------------------------------------------------------------------|
|--------------------------------------------------------------------------------------------------|
|-----4------------------5------------------------------7--------------------9--9-----9----9-----9-|
|-----x------------------x------------------------------x--------------------9--9-----9----9-----9-|
|-----2------------------3------------------------------5--------------------7--7-----7----7-----7-|
|-----0-----0--0--0--0-----------0--0--0--0--0--0--0----------0--0--0--------0--0-----0----0-----0-|
PM          -  -  -  -

Clean Tone with Fingers
|-----14------------14------------15-------------------------|
|------------------------------------------------------------|
|---------17-------------17-------------------16-------------|
|-----14-------14-------------14--14----------------14----14-|
|------------------------------------------------------------|
|------------------------------------------------------------|

|--14----------17--------15----------------------------|
|------------------------------------------------------|
|---------------------------------------16-------------|
|---------14-------14----14-------------------14----14-|
|------------------------------------------------------|
|------------------------------------------------------|

|-----14------------14------------15-------------------------|
|------------------------------------------------------------|
|---------17-------------17-------------------16-------------|
|-----14-------14-------------14--14----------------14----14-|
|------------------------------------------------------------|
|------------------------------------------------------------|

|--17------------17--------19-|
|--------------------0--------|
|-------17--------------------|
|--14-------14-------------14-|
|-----------------------------|
|-----------------------------|

|-----14------------14------------15-------------------------|
|------------------------------------------------------------|
|---------17-------------17-------------------16-------------|
|-----14-------14-------------14--14----------------14----14-|
|------------------------------------------------------------|
|------------------------------------------------------------|

|--14----------17--------15----------------------------|
|------------------------------------------------------|
|---------------------------------------16-------------|
|---------14-------14----14-------------------14----14-|
|------------------------------------------------------|
|------------------------------------------------------|

|-----14------------14------------15-------------------------|
|------------------------------------------------------------|
|---------17-------------17-------------------16-------------|
|-----14-------14-------------14--14----------------14----14-|
|------------------------------------------------------------|
|------------------------------------------------------------|

|-------------------17------------17------------17------------17-----------|
|--------------------------------------------------------------------------|
|----------17------------17------------17------------17------------17------|
|------14------14------------14------------14------------14------------14--|
|--------------------------------------------------------------------------|
|--------------------------------------------------------------------------|

Distortion
|-------------------------------------------------|
|-------------------------------------------------|
|--8--8--8--8--8--8--8--8--8--8--8--8--8--8-------|
|--7--7--7--7--7--7--7--7--7--7--7--7--7--7-------|
|--6--6--6--6--6--6--6--6--6--6--6--6--6--6-------|
|--0--0--0--0--0--0--0--0--0--0--0--0--0--0--0--0-|

|-------------------------------------------------|
|--13-13-13-13-13-13-13-13-13-13-13-13-13-13------|
|--11-11-11-11-11-11-11-11-11-11-11-11-11-11------|
|--10-10-10-10-10-10-10-10-10-10-10-10-10-10------|
|--9--9--9--9--9--9--9--9--9--9--9--9--9--9-------|
|--0--0--0--0--0--0--0--0--0--0--0--0--0--0--0--0-|

|-------------------------------------------------|
|--16-16-16-16-16-16-16-16-16-16-16-16-16-16------|
|--14-14-14-14-14-14-14-14-14-14-14-14-14-14------|
|--13-13-13-13-13-13-13-13-13-13-13-13-13-13------|
|--12-12-12-12-12-12-12-12-12-12-12-12-12-12------|
|--0--0--0--0--0--0--0--0--0--0--0--0--0--0--0--0-|

|-------------------------------------|
|-------------------------------------|
|-------------------------------------|
|-------------------------------------|
|-------------------------------------|
|-0-0-0--0--0-0-0--0--0-0-0-0-0-------|
PM- - -  -  - - -  -  - - - - -

Outro-Chorus(Distortion)
|----------------------------------------------------------------------------------------------|
|----------------------------------------------------------------------------------------------|
|-------------------------------------------------------------------------------------11/12/14-|
|--2------2-----2---2-----5--------4h5---4-----2-----2---2---2-----2---2-----5--------x--------|
|--2------2-----2---2-----5--------5-----5-----2-----2---2---2-----2---2-----5--------9-/10/12-|
|--0------0-----0---0-----3-----0--------------0-----0---0---0-----0---0-----3-----0-----------|

|---------------------------------------------------------------5----------|
|--------------------------------------------------------5--------5--------|
|-----------------------------------------------5----------5--------5------|
|--2------2-----2---2-----5--------4h5---4-----------------------------7/9-|
|--2------2-----2---2-----5--------5-----5---------------------------------|
|--0------0-----0---0-----3-----0-------------5----5--5------5-------------|
PM                                            -    -  -      -

|-7----0--0---0-------------------------|
|-7----0--0---0-------------------------|
|-8----0--0---0---------7/9--9--9--9--9-|
|-9-----------2---------x----x--x--x--x-|
|-9-----------2---------5/7--7--7--7--7-|
|-7-----------0---------0----0--0--0--0-|

|----------------------------------------------------------------------------------------------|
|----------------------------------------------------------------------------------------------|
|-------------------------------------------------------------------------------------11/12/14-|
|--2------2-----2---2-----5--------4h5---4-----2-----2---2---2-----2---2-----5--------x--------|
|--2------2-----2---2-----5--------5-----5-----2-----2---2---2-----2---2-----5--------9-/10/12-|
|--0------0-----0---0-----3-----0--------------0-----0---0---0-----0---0-----3-----0-----------|

|--------------------------------------------|
|--------------------------------------------|
|--------------------------------------------|
|--2------2-----2---2-----5--------4h5---4---|
|--2------2-----2---2-----5--------5-----5---|
|--0------0-----0---0-----3-----0------------|
                                           
|----------------------5--------------------------------------------5-----------------------|
|---------------5--------5----------------------------------7---------7---------------------|
|------5----------5--------5----------------------7-----------7---------7-------------------|
|-----------------------------7-------------------------------------------7-----------------|
|-------------------------------------------------------------------------------------------|
|----5----5--5------5-------------5--5--5--5---5------5--5-------5-----------5--5--5--5--5--|
PM   -    -  -      -                          -      -  -       -                
                                                                                  N.H.
|--7--7--7--7---------------------------------------------------------------------5*-------|
|--7--7--7--7---------------------------------------------------------------------5*-------|
|--8--8--8--8--9--9--8--8--8--8--8--8--8--8---------------------------------------5*-------|
|--9--9--9--9--x--x--x--x--x--x--x--x--x--x------------------------------------------------|
|--9--9--9--9--7--7--6--6--6--6--6--6--6--6------------------------------------------------|
|--7--7--7--7---------------------------------0--0----0-0-0---0---0-0-0-0-0---0------------|
PM                                                    - - -   -   - - - - -   -





Comments


Popular Afi tabs & chords
Now The World 1 Bass Tabs
Dont Change Chords
A Winter's Tale Tabs
Bleed Black Tabs
Born In The Usa Tabs
Midnight Sun Tabs
Miss Murder 4 Tabs
Synesthesia 1 Tabs
The Leaving Song Part 2 3 Tabs
Total Immortal 4 Tabs


Song lyrics



↑ Back to top | Tablatures and chords are parodies/interpretations of the original songs. You may use it for private study, scholarship, research or language learning purposes only
© 2014 AZChords.com Contact us | Privacy policy | DMCA | Add/correct tabs | Request tabs | Top 50 tabs