» » »

Days Of The Phoenix Tabs (ver.1)

Artists:  A B C D E F G H I J K L M N O P Q R S T U V W X Y Z # 

Days Of The Phoenix Tabs (ver.1)

Afi
Rating:
0/5 (0 votes)

Tabs too difficult? Try these video lessons and learn fast.
                ..pm..=palm mute

(R)=let ring out


---5----2------2------3-------0----------------- (intro)
-0---0----0-0----0-0-----0----------------------
---------------------------2-----2--------------
------------------------------------------------
------------------------------------------------
------------------------------------------------

---5------3----5-----7---77777777---------------
-0---0----0----0-----0---00000000---------------
------------------------------------------------
------------------------------------------------
------------------------------------------------
------------------------------------------------

----------------5--------5----2-3--5-----5------
--0--3--2--33------33-3----3---------33-----3---
------------------------------------------------
------------------------------------------------
------------------------------------------------
------------------------------------------------

--2--3--5-------5-----3--2--0-------------------
------------33-----3-----------0(R)-------------
------------------------------------------------
------------------------------------------------
------------------------------------------------
------------------------------------------------

------------------------------------------------  (chorus)   
-4--4-4---2--2-2---4--4-4--7--7-7--------------- 
-4--4-4---2--2-2---4--4-4--7--7-7---5--5-5------ 
-4--4-4---2--2-2---4--4-4--7--7-7---5--5-5------ X2
-2--2-2---0--0-0---2--2-2--5--5-5---5--5-5------ 
------------------------------------3--3-3------ 
          1st ending        2nd ending
--------|-----------------|---------------------
--------|-----------------|---------------------
-2--2-2-|-7--7-7---7--7-7-|--7-77-7--4-44-5-----
-2--2-2-|-7--7-7---7--7-7-|--7-77-7--4-44-5-----
-2--2-2-|-7--7-7---7--7-7-|--7-77-7--4-44-5-----
-0--0-0-|-5--5-5---5--5-5-|--5-55-5--2-22-3-----

-------------|----------------------------|-----
-------------|----4------7----------------|-----
-555555---7--|-4-4-4--7-7-7------5------5-|-----
-555555---7--|-4-4-4--7-7-7--5-5-5--5-5-5-|-----
-555555---7--|-2-2-2--5-5-5--5-5-5--5-5-5-|-----
-333333---5--|---------------3-3-3--3-3-3-|-----  (End chorus)
 ..pm..  x16           X4

---5----2------2------3-------0-----------------  (1st part of intro)
-0---0----0-0----0-0-----0----------------------
---------------------------2-----2--------------
------------------------------------------------
------------------------------------------------
------------------------------------------------

---5------3----5-----7---77777777---------------
-0---0----0----0-----0---00000000---------------
------------------------------------------------
------------------------------------------------
------------------------------------------------
------------------------------------------------  (end intro)
 
------------------------------------------------  (bridge)
-----------------3----------------3-------------
-----0---------0-------0--------0---------------
---4---4-----4-------4---4----4----------------- X2
-2---------2-------2--------2-------------------
------------------------------------------------

---------------------3-3-3--2-2-2--0-0----------
--0-0-0-0--3-3--2-2--0-0-0--0-0-0--0-0--2-2-2---
--4-4-4-4--4-4--4-4---------------------0-0-0---
------------------------------------------------
------------------------------------------------
------------------------------------------------   
  ..pm...                                         X2
------------------------------------------------
-3-3-3--5-5--2-2-2--3-3-3---2-0-----------------
-0-0-0--0-0--0-0-0--0-0-0---0-0-----------------
------------------------------------------------
------------------------------------------------
------------------------------------------------
(after 2nd time playing bridge)
------------------------------------------------
------------------------------------------------
------------------------------------------------
-5-555555---7-----------------------------------
-5-555555---7(R)--------------------------------
-3-333333---5-----------------------------------
   ..pm..

-----------------------------------------------
-----------------------------------------------
---4-4-4--7-7-7------5------5------------------
---4-4-4--7-7-7--5-5-5--5-5-5------------------ X4
---2-2-2--5-5-5--5-5-5--5-5-5------------------
-----------------3-3-3--3-3-3------------------

---5----2------2------3-------0-----------------  
-0---0----0-0----0-0-----0----------------------
---------------------------2-----2--------------
------------------------------------------------
------------------------------------------------
------------------------------------------------

---5------3----5-----7---77777777---------------
-0---0----0----0-----0---00000000---------------
------------------------------------------------
------------------------------------------------
------------------------------------------------
------------------------------------------------

----------------5--------5----3-2--0-----5------
--0--3--2--33------33------3---------33-----3---
------------------------------------------------
------------------------------------------------
------------------------------------------------
------------------------------------------------

--3--2--0-------5-----3--2--0-------------------
------------33-----3-----------3(R)-------------
------------------------------------------------
------------------------------------------------
------------------------------------------------
------------------------------------------------


song order:
intro
chorus
(1st part of) intro
chorus
bridge
intro
            
Tabs too difficult? Try these video lessons and learn fast.


comments powered by Disqus
↑ Back to top | Tablatures and chords are parodies/interpretations of the original songs. You may use it for private study, scholarship, research or language learning purposes only