» » »

Afi, Soap Box Derby Tabs (ver.1)

Artists:  A B C D E F G H I J K L M N O P Q R S T U V W X Y Z # 

Soap Box Derby Tabs (ver.1)

Afi Tabs
 Rating:
4/5 (4 votes)
Soap Box Derby lessons Tabs too difficult? Try these video lessons and learn fast
1
                Tunning: Standard
Key: pm=paulm mute
     SD=sub devide time

e|----------------------------------------------------------
B|----------------------------------------------------------
G|----------------------------6-6-6-----------6-6-6---------
D|--8--8-8-8-8-8-8-8-8-8-8-8--6-6-6--4-4-4-4--6-6-6--6-6-6-6
A|--8--8-8-8-8-8-8-8-8-8-8-8--4-4-4--4-4-4-4--4-4-4--6-6-6-6
E|--6--6-6-6-6-6-6-6-6-6-6-6---------2-2-2-2---------4-4-4-4
      |.........pm..........|          |.pm.|          |.pm.|

intro/verse continued

e|----------------------------------|
B|----------------------------------|
G|--6-6-6---------------------------|
D|--6-6-6--8--8-8-8-8-8-8-8-8-8-8-8-|
A|--4-4-4--8--8-8-8-8-8-8-8-8-8-8-8-|
E|---------6--6-6-6-6-6-6-6-6-6-6-6-|
              |.........pm........|         
chorus
e|---------------------------------------------------------------
B|---------------------------------------------------------------
G|---------9-------------------9----11----10-----------------6-6-
D|--8-x16--9-x8---6-----8------9-x8-11-x8-10-x16--8-8-8-8-8--6-6-
A|--8------7------6-x8--8-x16--7-----9-----8------8-8-8-8-8--4-4-
E|--6-------------4-----6-------------------------6-6-6-6-6------
                                                    |..pm..|
                                                    |..sd..|
  e|------------------------------------------------------------------|
  B|------------------------------------------------------------------|
  G|-6-6-10-10-10-10-10--5-5-5-5-------------6-6-6-6--5---------------|
x2D|-6-6-10-10-10-10-10--5-5-5-5--8-8-8-8-8--6-6-6-6--5--6-6-6-6-6-6-6|
  A|-4-4--8--8--8--8--8--3-3-3-3--8-8-8-8-8--4-4-4-4--3--6-6-6-6-6-6-6|
  E|------------------------------6-6-6-6-6--------------4-4-4-4-4-4-4|
             |...pm...|             |..pm..|              |....pm....|
             |...SD...|             |..SD..|              |....SD....|
            
Submit corrections

comments powered by Disqus
↑ Back to top | Afi Tabs for Soap Box Derby. Lyrics for acoustic guitar and electric guitar. 1 Tablatures and chords are parodies/interpretations of the original songs. You may use it for private study, scholarship, research or language learning purposes only