» » »

Self Pity Tabs (ver.1)

Artists:  A B C D E F G H I J K L M N O P Q R S T U V W X Y Z # 

Self Pity Tabs (ver.1)

Afi
Rating:
0/5 (0 votes)

Hard to play? Try these video lessons and learn fast.
                

intro/verse:
e|-------------------------------------------|
B|-------------------------------------------|
G|-11-1111111111----------9-999999-6-666666--|
D|-11-1111111111-7-777777-9-999999-6-666666--|  (4 X)
A|--9--9-9-9-9-9-7-777777-7-777777-4-444444--|
E|---------------5-555555--------------------|

pre-chorus:
e|--------------------|
B|--------------------|
G|-11---14------------|
D|-11---14---14---11--|   (2 X)
A|--9---12---14---11--|
E|-----------12----9--|

chorus:
e|----------------------------------------------------|
B|----------------------------------------------------|
G|-----11-11-11------11-11-11------11-11-11-12-12-12--|
D|-14--11-11-11--14--11-11-11--14--11-11-11-12-12-12--|  (1 X)
A|-14---9--9--9--14---9--9--9--14---9--9--9-10-10-10--|
E|-12------------12------------12---------------------|

after you have:

verse (2 X)
pre-chorus (2 X)
chorus (1 X)
verse (2 X)
pre-chorus (2 X)
chorus (2 X)

that's it !
            
Hard to play? Try these video lessons and learn fast. | Correct




comments powered by Disqus
↑ Back to top | Tablatures and chords are parodies/interpretations of the original songs. You may use it for private study, scholarship, research or language learning purposes only