» » »

No Poetic Device Bass tabs (ver.1)

Artists:  A B C D E F G H I J K L M N O P Q R S T U V W X Y Z # 

No Poetic Device Bass tabs (ver.1)

Afi
Rating:
0/5 (0 votes)

Tabs too difficult? Try these video lessons and learn fast.
                (1)
Intro
G|-------------------|---------------------|---------------------|
D|-------------------|---------------------|---------------------|
A|-22-2-22-2-22-2-22-|-22222222-3-222222-0-|-2222-0000-----------|
E|-------------------|---------------------|-----------3333-2222-|

Chorus                             Third Time
G|------------------------|--------------------------|
D|------------------------|------------------5h7-5-4-|
A|---------2-3-555-3-0000-|---------2-3-5555---------|
E|-0000-33----------------|-0000-33------------------|

Verse
G|---------------|------------|-------------|
D|---------------|------------|-------------|
A|-7777-99-10-10-|------------|-------------|
E|---------------|-5555-33-22-|-3-5-6-3-5-6-|

-2nd part of intro

Bridge     2x                     1x
G|-----------------------|------------------------|
D|-----------------------|------------------------|
A|--------------55555555-|--------------5555555-7-|
E|-0000-3-0-2-3----------|-0000-3-0-2-3-----------|
             1x                      1x
G|-------------------------|-----------------------|
D|-------------------4h5---|-----------------------|
A|--------------5555-----5-|----------2-3-55555555-|
E|-0000-3-0-2-3------------|-0000-2-3--------------|
              1x
G|-------------------------|
D|-------------------4h5---|alternate between those last
A|----------2-3-5555-----5-|two when you'r done with the
E|-0000-2-3----------------|cycle

-chorus

Ending
G|--------------------------|
D|------5555-8888-10-9-10-9-|
A|-7777---------------------|
E|--------------------------|
            
Tabs too difficult? Try these video lessons and learn fast.


comments powered by Disqus
↑ Back to top | Tablatures and chords are parodies/interpretations of the original songs. You may use it for private study, scholarship, research or language learning purposes only