» » »

Afi, Jack The Ripper Tabs (ver.2)

Artists:  A B C D E F G H I J K L M N O P Q R S T U V W X Y Z # 

Jack The Ripper Tabs (ver.2)

Afi Tabs
Rating:
0/5 (0 votes)
Jack The Ripper lessons Tabs too difficult? Try these video lessons and learn fast
                Jack the Ripper


Standard Tuning

Tab Legend 
(x#) = Strum/Pick # of times
/ = slide up
h = hammer


Verse 
|-------------------------------------------------------|
|-------------------------------------------------------|
|--------------------------12-12-----12-----9-----9-----|
|9-9(x3)-9(x2)-9(x2)-9(x3)-12-12(x3)-12(x2)-9(x2)-9(x3)-|
|9-9-----9-----9-----9-----10-10-----10-----7-----7-----|
|7-7-----7-----7-----7----------------------------------|

Chorus
|------------------------------------------------|
|7-----7-----7-7---7/10--5-----5-----5-5---5-----|
|---7-----7-----7-----------6-----6-----6-----6--|
|------------------------------------------------|
|------------------------------------------------|
|------------------------------------------------|

|--------------------------------------5-5-5-----------|
|5-----5-----5-5/10-10--------5-----5---------8--7-----|
|---7-----7------------11-11-----6------------------7--|
|------------------------------------------------------|
|------------------------------------------------------|
|------------------------------------------------------|

|------------------------------------------------|
|7-----7-----7-7---7/10--5-----5-----5-5---5-----|
|---7-----7-----7-----------6-----6-----6-----6--|
|------------------------------------------------|
|------------------------------------------------|
|------------------------------------------------|

|-------------------------------------------------5-5-5-|
|5-----5-----5-5/10-10--------5-----5----5h7--7---------|
|---7-----7------------11-11-----6-----6----6---6-------|
|-------------------------------------------------------|
|-------------------------------------------------------|
|-------------------------------------------------------|

Fill 
|----------------------------------------------------------|
|7---------------------------------------------------------|
|---7-------------------------12-12-----12-----9-----9-----|
|-----9(x3)-9(x2)-9(x2)-9(x3)-12-12(x3)-12(x2)-9(x2)-9(x3)-|
|-----9-----9-----9-----9-----10-10-----10-----7-----7-----|
|-----7-----7-----7-----7----------------------------------|

Guitar 2 
|10--10(x3)--10--12--12(x3)--12--14--14(x3)--14--15--15(x3)--15--|
|--12------12--12--12------12--12--12------12--12--12------12--12|
|----------------------------------------------------------------|
|----------------------------------------------------------------|
|----------------------------------------------------------------|
|----------------------------------------------------------------|

|10--10(x3)--10--12--12(x3)--12--14--14(x3)--14--14--14(x3)--14--|
|--12------12--12--12------12--12--12------12--12--12------12--12|
|----------------------------------------------------------------|
|----------------------------------------------------------------|
|----------------------------------------------------------------|
|----------------------------------------------------------------|

Song Structure
Verse (x6)
Chorus
Fill
Verse (x5)
Verse (x2) + Guitar 2
Chorus (x2)
            

comments powered by Disqus
↑ Back to top | Afi Tabs for Jack The Ripper. Lyrics for acoustic guitar and electric guitar. Tablatures and chords are parodies/interpretations of the original songs. You may use it for private study, scholarship, research or language learning purposes only