» » »

Afi, He Who Laughs Last.. Tabs (ver.1)

Artists:  A B C D E F G H I J K L M N O P Q R S T U V W X Y Z # 

He Who Laughs Last.. Tabs (ver.1)

Afi Tabs
Rating:
0/5 (0 votes)
He Who Laughs Last.. lessons Tabs too difficult? Try these video lessons and learn fast
                AFI:………He who laughs last.
INTRO:
E----------------------------------------------------------------
B----------------------------------------------------------------
G-7xx-7xx7-5xx5xx5-44444444------------------------------
D-7xx-7xx7-5xx5xx5-44444444------------------------------
A-5xx-5xx5-3xx3xx3-22222222------------------------------
E-------------------_______-------------------------
VERSE:	
E----------------------------------------------------------------
B----------------------------------------------------------------
G-77-9-1010--121212--5556---------------------------------
D-77-9-1010--121212--5556---------------------------------
A-55-7-8-8---101010--3334---------------------------------
E-----------------------------------------------------
CHORUS:
E----------------------------------------------------------------
B----------------------------------------------------------------
G7-7-7-7-------------------------------------------------------
D7-7-7-7-77-55-----------22-44-22-44-22-44 5-5-5-5-----
A5-5-5-5-77-55-----------22-44-22-44-22-44-5-5-5-5-----
E--------55-33-----------00-22-00-22-00-22-3-3-3-3-----
BRIDGE:
E----------------------------------------------------------------
B----------------------------------------------------------------
G7777777-9-10101010101010-9-7777777-9-5555555-----
D7777777-9-10101010101010-9-7777777-9-5555555-----
A5555555-7-8-8-8-8-8-8-88 7-5555555-7-3333333----
E----------------------------------------------------------------

SYMBOLS:
X=Palm muting
___=Palm muted build-up
            

comments powered by Disqus
↑ Back to top | Afi Tabs for He Who Laughs Last... Lyrics for acoustic guitar and electric guitar. Tablatures and chords are parodies/interpretations of the original songs. You may use it for private study, scholarship, research or language learning purposes only