» » »

Afi, He Who Laughs Last.. Chords (ver.1)

Artists:  A B C D E F G H I J K L M N O P Q R S T U V W X Y Z # 

He Who Laughs Last.. Chords (ver.1)

Afi Tabs
 Rating:
4/5 (4 votes)
He Who Laughs Last.. lessons Tabs too difficult? Try these video lessons and learn fast
1
                HE WHO LAUGHS LAST     
          By AFI
 Intro:        
        e: ----------------------------------------
        b: ----------------------------------------
        g: -7-x-x-7-7-x-5-x-x-5-5-x--4-x-x-4-4-----
        d: -7-x-x-7-7-x-5-x-x-5-5-x--4-x-x-4-4-----
        a: -5-x-x-5-5-x-3-x-x-3-3-x--2-x-x-2-2-----
        e: ----------------------------------------
  Verse:         
        e: ----------------------------------------
        b: ----------------------------------------
        g: -7-7-7-7--10-10-10-10--12-12-12-12---5-5   
        d: -7-7-7-7--10-10-10-10--12-12-12-12---5-5
        a: -5-5-5-5--8--8--8--8---10-10-10-10---3-3  
        e: ----------------------------------------

        e: ----------------------------------------
        b: ----------------------------------------
        g: -7-7-7-7--10-10-10-10--12-12-12-12--5--5   
        d: -7-7-7-7--10-10-10-10--12-12-12-12--5--5
        a: -5-5-5-5--8--8--8--8---10-10-10-10--3--3  
        e: ----------------------------------------

        e: ----------------------------------------------
        b: ----------------------------------------------
        g: -7-7-7-7--10-10-10-10--12-12-12-12-12-12-12-12
        d: -7-7-7-7--10-10-10-10--12-12-12-12-12-12-12-12
        a: -5-5-5-5--8--8--8--8---10-10-10-10-10-10-10-10  
        e: ----------------------------------------------
        
        e: ---------------------------------------
        b: ---------------------------------------
        g: -7-7-7-7---10-10-10-10--12-12-12-12--5-
        d: -7-7-7-7---10-10-10-10--12-12-12-12--5-
        a: -5-5-5-5---8--8--8--8---10-10-10-10--3-
        e: ---------------------------------------

  Chorus:          
         e: -------------------
         b: -------------------
         g: ----7-7-7-7--------
         d: ----7-7-7-7---7--5-   X 4
         a: ----5-5-5-5---7--5-
         e: --------------5--3-
               
         e: -----------------------
         b: -----------------------
         g: -------------------5-5-
         d: ---1-3--1-3--1-5---5-5-
         a: ---1-3--1-3--1-5---3-3-
         e: ---3-5--3-5--3-3-------

Verse,Chorus
 
Bridge:        
         e: -------------------------- }
         b: -------------------------- }
         g: -7-7-7-7--9--10-10-10-10-- }
         d: -7-7-7-7--9--10-10-10-10-- }
         a: -5-5-5-5--7--8--8--8--8--- }
         e: -------------------------- }
               
         e: ---------------------------------}
         b: -------------------------------- }
         g: ---7-7-7-7---9---5-5-5-5-------- }
         d: ---7-7-7-7---9---5-5-5-5-------- }
         a: ---5-5-5-5---7---3-3-3-3-------- }
         e: -------------------------------- }
 
Verse
Chorus
 End on                    
               
         e -----
         b -----
         g---7--
         d---7--
         a---5--
         e -----
Words:
Verse1:  NO TRUST can be given freely,  it^Òs a valuble comodity,  
but obviously this is something you^Òve never learned.  
Faith is something you put in friends,  and had I excess morals to
lend,  
I^Òd let you borrow them but my trust you haven^Òt earned.

Chorus:   We^Òve  got a problem? First of all there is no ^Ówe^Ô,  
I^Òm detached from you completely.  I^Òve got a problem.  
You tell lies to my friends and think it wont get back to me.

Verse2:  NO BOND can ever to make a stable fit in our relationship,  
but one thing that comes between us is honesty.  
When you have something to say, 
you always seem to find a way to avoid the truth or in stead,  avoid me.

Chorus

Bridge on guitar no singing

Verse3:  STRAIGHT UP is how you^Òll see me stand,  
but it is never in your plans to be straight forward,   
so instead,  you use deciet.  
Now I^Òd like to take apart what you^Òve been braking from the start.  
I^Òll remain intact,  I won^Òt be broken in defeat.

Chorus 

End  NO TRUST!
            
Submit corrections

comments powered by Disqus
↑ Back to top | Afi Chords for He Who Laughs Last... Lyrics for acoustic guitar and electric guitar. 1 Tablatures and chords are parodies/interpretations of the original songs. You may use it for private study, scholarship, research or language learning purposes only