>
 >
 >
Halloween 1

Halloween 1 Guitar Tabs

Afi - Halloween 1 chords, tabs, tablatures, lyrics

Guitar lessons | Add/correct | Request | Top 50 tabs Artists:  A B C D E F G H I J K L M N O P Q R S T U V W X Y Z 0-9

Halloween 1 Guitar Tabs – Afi

CD, Sheet music, Poster

Do you like Halloween 1? Share with your friends now
Bass TabsBass Tabs v2TabsTabs v2Tabs v3Tabs v4Tabs v5
..f.p..                                                  

e|------------------------- 
B|-------------------------
G|-------------------------
D|----12~----12--12-12-12-
A|----10~----10---10-10-10-
E| -------------------------------------

B|--------------------
G|---------7-7--------
D|----9-9-7-7-5-7-9-
A|----9-9-5-5-5-7-9-
e|----7-7-------3-5-7-

e|-----------------
A|-----------------
D|-----------------
G|----------------- x2
B|----2--5-2-2--5-
e|----2--3-2-2-3-

e|----------------------------------------
A|----------------------------------------
D|-----------------------------7-7--------
G|----9-9--7-7--9-9-7-7--9-9-7-7-5-7-9-
B|----9-9-7-7--9-9-7-7--9-9-5-5-5-7-9-
e|----7-7--5-5--7-7-5-5--7-7-------3-5-7-

Instead of typing each note about 16 times, 
The ones with two power chords you play twice
as much as the single power chords. I think 
its like 8 and 4 or something.  I met Davey Havok 
at soma theater and the Hollywood palladium.
R.I.P Fletcher Pederson





Comments


Popular Afi tabs & chords
Key Lime Pie Bass Tabs
Bleed Black Drum Tabs
Consult My Lover Tabs
Days Of The Phoenix 4 Tabs
Fall Children 2 Tabs
Kill Caustic 4 Tabs
Love Like Winter 1 Tabs
Malleus Maleficarum 1 Tabs
Salt For Your Wounds Tabs
Transference Tabs


Song lyrics



↑ Back to top | Tablatures and chords are parodies/interpretations of the original songs. You may use it for private study, scholarship, research or language learning purposes only
© 2014 AZChords.com Contact us | Privacy policy | DMCA | Add/correct tabs | Request tabs | Top 50 tabs