» » »

Afi, Halloween Tabs (ver.2)

Artists:  A B C D E F G H I J K L M N O P Q R S T U V W X Y Z # 

Halloween Tabs (ver.2)

Afi Tabs
 Rating:
4/5 (4 votes)
Halloween lessons Tabs too difficult? Try these video lessons and learn fast
                ..f.p..                                                  

e|------------------------- 
B|-------------------------
G|-------------------------
D|----12~----12—--12-12-12-
A|----10~----10---10-10-10-
E| -------------------------------------

B|--------------------
G|---------7-7--------
D|----9-9—-7-7—-5-7-9-
A|----9-9—-5-5—-5-7-9-
e|----7-7-------3-5-7-

e|-----------------
A|-----------------
D|-----------------
G|----------------- x2
B|----2--5—-2-2--5-
e|----2--3—-2-2—-3-

e|----------------------------------------
A|----------------------------------------
D|-----------------------------7-7--------
G|----9-9--7-7--9-9—-7-7--9-9—-7-7—-5-7-9-
B|----9-9—-7-7--9-9—-7-7--9-9—-5-5—-5-7-9-
e|----7-7--5-5--7-7—-5-5--7-7-------3-5-7-

Instead of typing each note about 16 times, 
The ones with two power chords you play twice
as much as the single power chords. I think 
its like 8 and 4 or something.  I met Davey Havok 
at soma theater and the Hollywood palladium.
R.I.P Fletcher Pederson
            
Submit corrections

comments powered by Disqus
↑ Back to top | Afi Tabs for Halloween. Lyrics for acoustic guitar and electric guitar. Tablatures and chords are parodies/interpretations of the original songs. You may use it for private study, scholarship, research or language learning purposes only