» » »

Afi, Half Empty Bottle Bass tabs (ver.1)

Artists:  A B C D E F G H I J K L M N O P Q R S T U V W X Y Z # 

Half Empty Bottle Bass tabs (ver.1)

Afi Tabs
 Rating:
4/5 (4 votes)
Half Empty Bottle lessons Tabs too difficult? Try these video lessons and learn fast
1
                                          HALF-EMPTY BOTTLE - A.F.I.


Intro
G|-4----------4-4-4-4-4------------------------------------------------------|
D|---------------------------------------------------------------------------|
A|---------------------------------------------------------------------------|
E|---------------------------------------------------------------------------|

Verse 4x
G|---------------------------------------------------------------------------|
D|---------------------------------------------------------------------------|
A|-0-2-2-2-2-0-2-2-2-2-------------------------------------------------------|
E|---------------------0-3-3-3-3-2-2-3---------------------------------------|

Chorus 2x
G|------------------------------/11-9-7--------------------------------------|
D|-------------------------/9-9---------9-7----------------------------------|
A|---------5-5-5-5-7-7-7-7------------------5-5-5-5-7-7-7-7------------------|
E|-7-7-7-7-------------------------------------------------------------------|

Repeat Verse 4x
Repeat Chorus 2x

Bridge
G|---------------------------------------------------------------------------|
D|---------------------------------------------------------------------------|
A|-0-2-2-2-2-0-2-2-2-2-0-2-2-2-2-0-2-2-2-2-----------------------------------|
E|-----------------------------------------0-3-3-3-3-0-3-3-3-3-0-3-3-3-3-0---|

G|---------------------------------------------------------------------------|
D|---------------------------------------------------------------------------|
A|-----------0-2-2-2-2-0-2-2-2-2-0-2-2-2-2-0-2-2-2-2-------------------------|
E|-0-3-3-3-3-----------------------------------------0-3-3-3-3-0-3-3-3-3-2-2-|

Repeat Verse 4x

Outro
G|-------------------------|
D|---------0-0-0-0-3-3-3---|
A|-2-2-2-2---------------2-|
E|-------------------------|
            
Submit corrections

comments powered by Disqus
↑ Back to top | Afi Bass for Half Empty Bottle. Lyrics for acoustic guitar and electric guitar. 1 Tablatures and chords are parodies/interpretations of the original songs. You may use it for private study, scholarship, research or language learning purposes only