» » »

Cold Hands Tabs (ver.3)

Artists:  A B C D E F G H I J K L M N O P Q R S T U V W X Y Z # 

Cold Hands Tabs (ver.3)

Afi
Rating:
0/5 (0 votes)

Hard to play? Try these video lessons and learn fast.
                (Intro)
Hey everybody, in my opinion
this song has the best rythm
guitar part on the album.
So i Figured most of it out
,Couldn't figure out the chourus,
and wanted to share, you should be able
to play most of the song with this,
i'll hopefully try to finish
this tab! :) By the way this is my first tab. Enjoy!

(Beginning effect, Might not be guitar but here it is anyway)
E-----------|
B-----------|
G-----------|
D-----------|
A-----------|
E-1(Slide)5-|

Intro part 1

E-5--5--5--5--9                                   E---------------|
B-5--5--5--5--9                                   B---------------|
G-7--5--7--5--7   Or if you cant do barre Chords  G-7-----7-----9-|
D-7--7--7--7--7                                   D-7--7--7--7--9-|
A-5--7--5--7--9                                   A-5--7--5--7--7-|
E-5--5--5--5--9                                   E-5--5--5--5--7-|

Intro part 2

E--------------------------------------------|
B--------------------------------------------|
G--------------------------------------------|
D-7--7--7-7-7--7--7--5--5--7--7--4-4-4-6-6-2-|
A-7--7--7-7-7--7--7--5--5--7--7--------------|
E-5--5--5-5-5--5--5--3--3--5--5--------------|

E--------------------------5--5--5--5--9-|
B--------------------------5--5--5--5--9-|
G--------------------------7--5--7--5--7-|
D-7--7--7-7-7--7--7--5--5--7--7--7--7--7-|
A-7--7--7-7-7--7--7--5--5--5--7--5--7--9-|
E-5--5--5-5-5--5--5--3--3--5--5--5--5--9-|

Verse 1

E--------------------------------------------|
B--------------------------------------------|
G--------------------------------------------|
D-7--7--7-7-7--7--7--5--5--7--7--7-7-7--7--5-|
A-7--7--7-7-7--7--7--5--5--7--7--7-7-7--7--5-|
E-5--5--5-5-5--5--5--3--3--5--5--5-5-5--5--3-|
  .  .  . . .  .  .  .  .  .  .  . . .  .  .


E--------------------------5--5--5--5--9-|
B--------------------------5--5--5--5--9-|
G--------------------------7--5--7--5--7-|
D-7--7--7-7-7--7--7--5--5--7--7--7--7--7-|
A-7--7--7-7-7--7--7--5--5--5--7--5--7--9-|
E-5--5--5-5-5--5--5--3--3--5--5--5--5--9-|
  .  .  . . .  .  .  .  .


E--------------------------------------------|
B--------------------------------------------|
G--------------------------------------------|
D-7--7--7-7-7--7--7--5--5--7--7--4-4-4-6-6-2-|
A-7--7--7-7-7--7--7--5--5--7--7--------------|
E-5--5--5-5-5--5--5--3--3--5--5--------------|
  .  .  . . .  .  .  .  .  .  .  . . . . . .

E--------------------------5--5--5--5--9-|
B--------------------------5--5--5--5--9-|
G--------------------------7--5--7--5--7-|
D-7--7--7-7-7--7--7--5--5--7--7--7--7--7-|
A-7--7--7-7-7--7--7--5--5--5--7--5--7--9-|
E-5--5--5-5-5--5--5--3--3--5--5--5--5--9-|
  .  .  . . .  .  .  .  .


E--------------------------------------------|
B--------------------------------------------|
G--------------------------------------------|
D-7--7--7-7-7--7--7--5--5--7--7--4-4-4-6-6-2-|
A-7--7--7-7-7--7--7--5--5--7--7--------------|
E-5--5--5-5-5--5--5--3--3--5--5--------------|

E--------------------------5--5--5--5--9-|
B--------------------------5--5--5--5--9-|
G--------------------------7--5--7--5--7-|
D-7--7--7-7-7--7--7--5--5--7--7--7--7--7-|
A-7--7--7-7-7--7--7--5--5--5--7--5--7--9-|
E-5--5--5-5-5--5--5--3--3--5--5--5--5--9-|


E--------------------------------------------|
B--------------------------------------------|
G--------------------------------------------|
D-7--7--7-7-7--7--7--5--5--7--7--4-4-4-6-6-2-|
A-7--7--7-7-7--7--7--5--5--7--7--------------|
E-5--5--5-5-5--5--5--3--3--5--5--------------|
  .  .  . . .  .  .  .  .  .  .  . . . . . .


E--------------------------5--5--5--5--9----|
B--------------------------5--5--5--5--9----|
G--------------------------7--5--7--5--7----|
D-7--7--7-7-7--7--7--5--5--7--7--7--7--7--7-|
A-7--7--7-7-7--7--7--5--5--5--7--5--7--9--7-|
E-5--5--5-5-5--5--5--3--3--5--5--5--5--9--5-|
  .  .  . . .  .  .  .  .

(Pre-Chourus)

For this, jade does a technique that uses
the toggle switch to kind of alter the
sound and give it an off beat type
of feel. All you do is turn
one of your pick-ups off
(Volume knob to zero),
preferably the one your not using
to play, and wiggle the toggle
switch, so it goes on and off.

E------------------------------------|
B------------------------------------|
G------------------------------------|
D------------------------------------|
A------------------------------------|
E-5--7--8--3-(Toggle switch effect)--|

E------------------------|
B------------------------|
G------------------------|
D------------------------|
A------------------------|
E-8--8--10--7--8(Slide)5-|

E---------------------------------------|
B---------------------------------------|
G---------------------------------------|
D---------------------------------------|
A---------------------------------------|
E-5--7--8(Slide)12----------------------|(Toggle switch effect)

E--------------------------|
B--------------------------|
G--------------------------|
D-12--12-12-12-12-12-12-14-|
A-12--12-12-12-12-12-12-14-|
E-10--10-10-10-10-10-10-12-|
      .  .
            
Hard to play? Try these video lessons and learn fast. | Correct




comments powered by Disqus
↑ Back to top | Tablatures and chords are parodies/interpretations of the original songs. You may use it for private study, scholarship, research or language learning purposes only