» » »

Afi, Charles Atlas Tabs (ver.1)

Artists:  A B C D E F G H I J K L M N O P Q R S T U V W X Y Z # 

Charles Atlas Tabs (ver.1)

Afi Tabs
 Rating:
4/5 (4 votes)
Charles Atlas lessons Tabs too difficult? Try these video lessons and learn fast
1
                
Intro:
e-|-------------------------------------|
B-|-------------------------------------|
G-|-------------------------------------|
D-|-2---2-2-2-2-----------------5-5-5-5-|
A-|-0---0-0-0-0-3-3-3-3-2-2-2-2-3-3-3-3-|
E-|-------------1-1-1-1-0-0-0-0---------|

Verse:
e-|-------------------------------------------------------------------
B-|-------------------------------------------------------------------
G-|-------------------------------------------------------------------
D-|-7-7-7-7-7-7-7-7-----------------7-7-7-7-7-7-7-7-------------10-10-
A-|-5-5-5-5-5-5-5-5-8-8-8-8-7-7-7-7-5-5-5-5-5-5-5-5-8-8-8-8-7-7--8--8-
E-|-----------------6-6-6-6-5-5-5-5-----------------6-6-6-6-5-5-------

e-|-------------------------------------------------------------------------|
B-|-------------------------------------------------------------------------|
G-|-------------------------------------------------------------------------|
D-|-7-7-7-7-7-7-7-7---------------------------------------------------------|
A-|-5-5-5-5-5-5-5-5-8-8-8-8-7-7-7-7-10-10-10-10-10-10-10-10-8-8-8-8-5-5-5-5-|
E-|-----------------6-6-6-6-5-5-5-5--8--8--8--8--8--8--8--8-6-6-6-6-3-3-3-3-|

Bit just before chorus                 
e-|-------------------------------------|---------------------------------|
B-|-------------------------------------|---------------------------------|
G-|-------------------------------------|---------------------------------|
D-|-5-5-5-3-3-3-------5-5-5-3-3-3-------|-----------------5-5-5-5-7-7-7-7-|
A-|-3-3-3-1-1-1-5-5-5-3-3-3-1-1-1-5-5-5-|-5-5-5-5-2-2-2-2-3-3-3-3-5-5-5-5-|
E-|-------------3-3-3-------------3-3-3-|-3-3-3-3-0-0-0-0-----------------|

e-|-------------------------------------------------|
B-|-------------------------------------------------|
G-|-------------------------------------------------|
D-|-----------------5-5-5-5-7-7-7-7-5-5-5-5-7-7-7-7-|
A-|-5-5-5-5-2-2-2-2-3-3-3-3-5-5-5-5-3-3-3-3-5-5-5-5-|
E-|-3-3-3-3-0-0-0-0---------------------------------|

Solo
e-|--------------------------8-10-17-|
B-|---------------------8-10---------|
G-|-9-9-9-9-9-7-5--------------------|
D-|-9-9-9-9-------7-5-7--------------|
A-|----------------------------------|
E-|----------------------------------|

Last chorus:
e-|---------------------------------|
B-|---------------------------------|
G-|---------------------------------|
D-|-----------------7-7-7-7-9-9-9-9-|
A-|-7-7-7-7-4-4-4-4-5-5-5-5-7-7-7-7-|
E-|-5-5-5-5-2-2-2-2-----------------|
            
Submit corrections

comments powered by Disqus
↑ Back to top | Afi Tabs for Charles Atlas. Lyrics for acoustic guitar and electric guitar. 1 Tablatures and chords are parodies/interpretations of the original songs. You may use it for private study, scholarship, research or language learning purposes only