» » »

Catch A Hot One Tabs (ver.2)

Artists:  A B C D E F G H I J K L M N O P Q R S T U V W X Y Z # 

Catch A Hot One Tabs (ver.2)

Afi
Rating:
0/5 (0 votes)

Hard to play? Try these video lessons and learn fast.
                Intro:
e|-------------------------------------------------|
B|--------(2x)-------------------------------------|
G|-------8----------------8888----------5-5-5-7-8--|
D|--7----8---------7777---8888---3333---5-5-5-7-8--|
A|--7----6---------7777---6666---3333---3-3-3-5-6--|
E|--5--------------5555----------1111--------------|
                 |--pm--------|

Verse 1: 
e|----------------------------------------------------------------|
B|----------------------------------------------------------------|
G|--------5-5-7-8--------10-10-12-12-------5-5-7-8-10101010-------|
D|--7777--5-5-7-8--7777--------------7777--5-5-7-8-10101010-8888--|
A|--7777--3-3-5-6--7777--8--8--10-10-7777--3-3-5-6-8-8-8-8--6666--|
E|--5555-----------5555--------------5555-------------------------|
                                        
e|-----------------------------------------------------------------------------|
B|-----------------------------------------------------------------------------|
G|--------5-5-7-8--------10-10-12-12-------5-5-7-8-10101010-12121212--10101010-|
D|--7777--5-5-7-8--7777--------------7777--5-5-7-8-10101010-12121212--10101010-|
A|--7777--3-3-5-6--7777--8--8--10-10-7777--3-3-5-6-8-8-8-8--10101010--8-8-8-8--|
E|--5555-----------5555--------------5555--------------------------------------|

Chorus:
e|-------------------------------------------|
B|-------------------------------------------|
G|-------------------------------------------|
D|--7-7----------7-7----------7-7------------|
A|--7-7----------7-7----------7-7------------|
E|--5-5--(BASS)--5-5--(BASS)--5-5--(BASS)----|


e|----------------------------------------------------------------------|
B|----------------------------------------------------------------------|
G|----------------------------------------------------------------------|
D|--7--7-5--3333-5555-7-7-X-7--7--3333-5555-7-7-7-9-9-9-10-10-10-5-5-5--|
A|--7--7-5--3333-5555-7-7-X-7--7--3333-5555-7-7-7-9-9-9-10-10-10-5-5-5--|
E|--5--5-3--1111-3333-5-5-X-5--5--1111-3333-5-5-5-7-7-7--8--8--8-3-3-3--|

e|-------------------------------|
B|-------------------------------|
G|-------------------------------|
D|-3333-5555-7-7-X-7--7--3333-2--|
A|-3333-5555-7-7-X-7--7--3333-2--|
E|-1111-3333-5-5-X-5--5--1111-0--|

Bridge:
e|--------------------------------------------------------------|
B|------------(4x)-----------------------------------------(2x)-|
G|--9999-7777-----------------55555555--77777777--88888888------|
D|------------------77777777--55555555--77777777--88888888------|
A|--7777-5555-------77777777--33333333--55555555--66666666------|
E|------------------55555555------------------------------------|

e|---------------------------------------------------|
B|---------------------------------------------------|
G|-9-99999999-10-1010101010101010--1212121212121212--|
D|---------------------------------------------------|
A|-7-77777777--8--8-8-8-8-8-8-8-8--1010101010101010--|
E|---------------------------------------------------|


ORDER
intro 
verse 1
chorus
intro
verse 2
chorus
Bridge
chorus
            
Hard to play? Try these video lessons and learn fast. | Correct




comments powered by Disqus
↑ Back to top | Tablatures and chords are parodies/interpretations of the original songs. You may use it for private study, scholarship, research or language learning purposes only