» » »

Afi, But Home Is Nowhere Tabs (ver.3)

Artists:  A B C D E F G H I J K L M N O P Q R S T U V W X Y Z # 

But Home Is Nowhere Tabs (ver.3)

Afi Tabs
Rating:
0/5 (0 votes)
But Home Is Nowhere lessons Tabs too difficult? Try these video lessons and learn fast
                (D A D G B E) - '...But Home Is Nowhere'

 Intro
|--------------------------------------------------------------------|
|--------------------------------------------------------------------|
|--------------------------------------------------------------------|
|-4-4-4-4-4-4-4-4-4-4-4-4-4-4-4-4-7-7-7-7-7-7-7-7-2-2-2-2-6-6-6-6----|
|--------------------------------------------------------------------|
|--------------------------------------------------------------------|

(after first chorus play intro once then play this)
|------------------------------------------------------------------------|
|------------------------------------------------------------------------|
|------------------------------------------------------------------------|
|-4-4-4-4-4-4-4-4-4-4-4-4-4-4-11-11-11-9-9-9-7-7-12-12-12-11-11-11-11----|
|------------------------------------------------------------------------|
|------------------------------------------------------------------------|

Chorus
|----------------------------|
|----------------------------|
|----------------------------|
|-7-7-7-7-2-2-2-2-4-4-4-4----|
|-7-7-7-7-2-2-2-2-4-4-4-4----|
|-7-7-7-7-2-2-2-2-4-4-4-4----|

Bridge
|--------------------------------------------------------------------|
|--------------------------------------------------------------------|
|--------------------------------------------------------------------|
|-4-4-4-4-4-4-4-4-6-6-6-6-6-6-6-6-7-7-7-7-7-7-7-7-9-9-9-9-9-9-9-9----|
|--------------------------------------------------------------------|
|--------------------------------------------------------------------|

Im sorry i dont have the other part of the bridge, it isnt that hard to figure out im just lazy

***************************************************************************************
***************************************************************************************
            

comments powered by Disqus
↑ Back to top | Afi Tabs for But Home Is Nowhere. Lyrics for acoustic guitar and electric guitar. Tablatures and chords are parodies/interpretations of the original songs. You may use it for private study, scholarship, research or language learning purposes only