» » »

Afi, Born In The Usa Tabs (ver.1)

Artists:  A B C D E F G H I J K L M N O P Q R S T U V W X Y Z # 

Born In The Usa Tabs (ver.1)

Afi Tabs
Rating:
0/5 (0 votes)
Born In The Usa lessons Tabs too difficult? Try these video lessons and learn fast
                

INTRO / VERSE
e-|----------------------------------------------------------------------
B-|----------------------------------------------------------------------
G-|----6-6-6-6-6-6-6---6-11------9------7--------------------------------
D-|----6-6-6-6-6-6-6---6-11---9--9---7--7---6-6--------------------------
A-|----4-4-4-4-4-4-4---4--9---9--7---7--5---6-6--------------------------
E-|---------------------------7------5------4-4--------------------------

CHORUS                x2			       x1
e-|------------------------|---------------------------------------------
B-|------------------------|---------------------------------------------
G-|--9-9-9-9--11-11-11-11--|---13-13---11-11---9-9---7-7-----------------
D-|--9-9-9-9--11-11-11-11--|---13-13---11-11---9-9---7-7-----------------
A-|--7-7-7-7--9--9--9--9---|---11-11---9--9----7-7---5-5-----------------
E-|------------------------|---------------------------------------------

		  x3
e-|----------------------------------------------------------------------
B-|----------------------------------------------------------------------
G-|---11-11--9-----------------------------------------------------------
D-|---11-11--9----11-----------------------------------------------------
A-|---9--9---7----11-----------------------------------------------------
E-|---------------9------------------------------------------------------
            
Submit corrections

comments powered by Disqus
↑ Back to top | Afi Tabs for Born In The Usa. Lyrics for acoustic guitar and electric guitar. Tablatures and chords are parodies/interpretations of the original songs. You may use it for private study, scholarship, research or language learning purposes only