» » »

Afi, Beautiful Thieves Bass tabs (ver.4)

Artists:  A B C D E F G H I J K L M N O P Q R S T U V W X Y Z # 

Beautiful Thieves Bass tabs (ver.4)

Afi Tabs
 Rating:
4/5 (4 votes)
Beautiful Thieves lessons Tabs too difficult? Try these video lessons and learn fast
1
                
Intro:
G--------------------------------------------|
D--------------------------------------------|
A--------------------------------------------|
E-0h222-x-0h222-x-0h22-0h222-x-0h222-x-0h22--|

Verse 6x			              6th time:
G---------------------------------------------|----|
D---------------------------------------------|----|
A-----------------0---------------------0-0h2-|----|
E-0h222-2-0h222-2--20h2-0h222-2-0h222-2--2----|-2~~|
 
Chorus:
G-------------------------------------------------------------------|
D-------------------------------------------------9976----------7---|
A-5-555-555-55--------------------5--7-777-777-77------9-999-99--7\-|
E--------------22-44-5-555-555-55-----------------------------------|
                                       Dont play last E2 in 2nd chorus.
G----------------------------------------------------------------------|
D----------------------------------------------------------------------|
A-5-555-555-55--------------------5------------------------------------|
E--------------22-44-5-555-555-55----0-000-000-000-457-777-777-777-542~|
					


2nd Verse: 1:27
G-------------------------------------------|
D-44-44----44-44-----44-44----44-44---------|
A---------------4------------------4----024-|
E------2~--------22~------2~--------2--2----|

G------------------------------------------------|
D-44-44----44-44-----44-44----44-44--------------|
A---------------4------------------4--2-2-202----|
E------2~--------22~------2~--------2---------2~-|

(Chorus)


Bridge (2:25)
G-------------------------------------9--9-------------------|
D---------------------------------9----9--9-------------7-6--|
A------------------------------7-7-7----7--7--------777------|
E-5-5-/9-9\-5-5-/9-9\-5-5-/9-9----------------2-4-5----------|

Chorus/Outro: (2:42)
G-------------------------------------------------|
D-------------------------------------------------|
A--------------5-7----------------------------7\5-|
E-5-555-555-55-----0-000-000-00-7542-222-22--5----|
                                                                 (3:02)
G-----------------------------------------------------------------------|
D----------------------------------------------------------------679997-|
A-5-555-555-55--------------------5-7-----------------------------------|
E--------------22-44-5-555-555-55------0-000-000-000-057-777-7-7--------|
		  
G------------------------------------------------------------------|
D-------------------------------------------------------------7----|
A-5-555-555-55-7777--------------5-7---------------------------7\5-|
E-------------------5-555-555-55-----0-000-000-00-7542-222-22------|
(3:13)
G----------------------------------------------------------------------|
D-----------------------------------------9------9---------------------|
A-5-555-555-55--------------------5-7-777--7-7-7--7--------------------|
E--------------22-44-5-555-555-55-------------------7-777-777-777-5-2~-|

G----------|
D--4~------|
A-4---4/9~-|
E----------|
            
Submit corrections

comments powered by Disqus
↑ Back to top | Afi Bass for Beautiful Thieves. Lyrics for acoustic guitar and electric guitar. 1 Tablatures and chords are parodies/interpretations of the original songs. You may use it for private study, scholarship, research or language learning purposes only