» » »

Afi, Beautiful Thieves Bass tabs (ver.3)

Artists:  A B C D E F G H I J K L M N O P Q R S T U V W X Y Z # 

Beautiful Thieves Bass tabs (ver.3)

Afi Tabs
 Rating:
4/5 (7 votes)
Beautiful Thieves lessons Tabs too difficult? Try these video lessons and learn fast
                Music by AFI
Bass by Hunter Burgan
Tuning: Eb ( Eb Ab Db Gb )

This is my first tab, it's not perfect, but it's what I hear.


Intro
|---------------------------------------------------------|
|---------------------------------------------------------|
|---------------------------------------------------------|
|-x-1-3-3-3-x-1-3-3-3-x-1-3-x-1-3-3-3-x-1-3-3-3-x-1-3-3-3-|


Verse:   (x3)
|-----------------------------------|
|-----------------------------------|
|--------------------------1---1----|
|-x-1-3-3-3-x-1-3-3-3-3--3---3---3--|

|-----------------------------------|
|-----------------------------------|
|--------------------------1---1-3--|
|-x-1-3-3-3-x-1-3-3-3-3--3---3------|

|-----------------------------------|
|-----------------------------------|
|--------------------------1--------|
|-x-1-3-3-3-x-1-3-3-3-3--3---3-1-3--|

|-----------------------------------|
|-----------------------------------|
|--------------------------1---1-3--|
|-x-1-3-3-3-x-1-3-3-3-3--3---3------|



Pre-Chorus
|--------------------------------|
|--------------------------------|
|-10-10-10-10-10-x-10-10-10-10-x-|
|--------------------------------|


Chorus
|---------------------------------|-------------------------------|
|---------------------------------|-------------------------------|
|-6-6-6-6-6-6-6-6-6-6-6-6-6-----0-|-1-1-1-1-1-1-1-1-1-1-1-1-1-x-6-|
|---------------------------1-3---|-------------------------------|

|---------------------------------|-------------------------------|
|---------------------------------|-------------------------------|
|-----------------------------3-1-|--------------------1----------|
|-1-1-1-1-1-1-1-1-1-1-1-1-1-1-----|-3-3-3-3-3-3-3-3--x-------x-1--|


|---------------------------------|-------------------------------|
|---------------------------------|-------------------------------|
|-6-6-6-6-6-6-6-6-6-6-6-6-6-----0-|-1-1-1-1-1-1-1-1-1-1-1-1-1-x-6-|
|---------------------------1-3---|-------------------------------|

|---------------------------------|-------------------------------|
|---------------------------------|-------------------------------|
|-----------------------------3-1-|-3-3-3-3-3-3-3-3-3-3-3-3-3-3-3-|
|-1-1-1-1-1-1-1-1-1-1-1-1-1-1-----|-------------------------------|


Pre-Verse
|---------------------------------|-------------------------------|
|---------------------------------|-------------------------------|
|---------------------------------|-------------------------------|
|-3-------------------------------|-------------------------------|

In this part it isn't -141312- as individual notes, rather a slide.
I just put it like that to show that each note is heard in the slide itself

|-15--14131112-17--14131112--14--14131112--15--14131112-|  
|-------------------------------------------------------|  
|-------------------------------------------------------|
|-------------------------------------------------------|

|-15--14131112-17--14131112--14--14131112--19-----------|
|-------------------------------------------------------|
|-------------------------------------------------------|
|-------------------------------------------------------|


Verse:

|-------------------------|-----------------------|
|-5-5--5-5--5-------------|-5-5--5-5--5-----------|
|-------------------------|------------5----------|
|-------------3-----------|-------------3---------|


|-------------------------|----------------------------|
|-5-5--5-5--5-------------|-5-5--5-5--5----------------|
|-------------------------|------------------1-x-3-x-5-|
|--------------3----------|-------------3-1-3----------|

|-------------------------|-----------------------|
|-5-5--5-5--5-------------|-5-5--5-5--5-----------|
|-------------------------|------------5----------|
|-------------3-----------|-------------3---------|


|-------------------------|--------------------------|
|-5-5--5-5--5-------------|-5-5--5-5--5------5-5-5-5-|
|-------------------------|------------5--1----------|
|--------------3----------|-------------3------------|



Chorus

|---------------------------------|-------------------------------|
|---------------------------------|-------------------------------|
|-6-6-6-6-6-6-6-6-6-6-6-6-6-----0-|-1-1-1-1-1-1-1-1-1-1-1-1-1-x-6-|
|---------------------------1-3---|-------------------------------|

|---------------------------------|-------------------------------|
|---------------------------------|-------------------------------|
|-----------------------------3-1-|--------------------1----------|
|-1-1-1-1-1-1-1-1-1-1-1-1-1-1-----|-3-3-3-3-3-3-3-3--x-------x-1--|


|---------------------------------|-------------------------------|
|---------------------------------|-------------------------------|
|-6-6-6-6-6-6-6-6-6-6-6-6-6-----0-|-1-1-1-1-1-1-1-1-1-1-1-1-1-x-6-|
|---------------------------1-3---|-------------------------------|

|---------------------------------|-------------------------------|
|---------------------------------|-------------------------------|
|-----------------------------3-1-|-3-3-3-3-3-3-3-3-3-3-3-3-3-3-3-|
|-1-1-1-1-1-1-1-1-1-1-1-1-1-1-----|-------------------------------|


Bridge

|---------------------------------|---------------------------------|
|---------------------------------|---------------------------------|
|---------------------------------|---------------------------------|
|---------------------------------|-----------------------------x-x-|

|---------------------------------|---------------------------------|
|-------------/12-12-12-12-12-12--|-------------/12-12-12-12-12-12--|
|-1--1-1-1------------------------|-1--1-1-1------------------------|
|---------------------------------|---------------------------------|

|---------------------------------|---------------10------10--------|
|-------------/12-12-12-12-12-12--|-------10---------10------10-----|
|-1--1-1-1------------------------|-8---8----8----------8-------8---|
|---------------------------------|---------------------------------|

|---------3-2-|
|-------3-----|
|---0-1-------|
|-3-----------|

Chorus

|---------------------------------|-------------------------------|
|---------------------------------|-------------------------------|
|---------------------------------|-1-1-1-1-1-1-1-1-1-1-1-1-1-x-6-|
|---------------------x-x-x-x-x-x-|-------------------------------|

|---------------------------------|-------------------------------|
|---------------------------------|-------------------------------|
|-----------------------------3-1-|--------------------1----------|
|-1-1-1-1-1-1-1-1-1-1-1-1-1-1-----|-3-3-3-3-3-3-3-3--x-------x-1--|

|---------------------------------|-------------------------------|
|---------------------------------|-------------------------------|
|-6-6-6-6-6-6-6-6-6-6-6-6-6-----0-|-1-1-1-1-1-1-1-1-1-1-1-1-1-x-6-|
|---------------------------1-3---|-------------------------------|

|---------------------------------|-------------------------7-7-7-|
|---------------------------------|----------------/5-5-5-5-------|
|-----------------------------3-1-|-3-3-3-3-3-3-3-3---------------|
|-1-1-1-1-1-1-1-1-1-1-1-1-1-1-----|-------------------------------|


|---------------------------------|-------------------------------|
|---------------------------------|-------------------------------|
|-6-6-6-6-6-6-6-6-6-6-6-6---8-8-8-|-1-1-1-1-1-1-1-1-1-1-1-1-1-x-6-|
|---------------------------------|-------------------------------|

|---------------------------------|-------------------------------|
|---------------------------------|-------------------------------|
|-----------------------------3-1-|--------------------1----------|
|-1-1-1-1-1-1-1-1-1-1-1-1-1-1-----|-3-3-3-3-3-3-3-3--x-------x-1--|


|---------------------------------|-------------------------------|
|---------------------------------|-------------------------------|
|-6-6-6-6-6-6-6-6-6-6-6-6-6-----0-|-1-1-1-1-1-1-1-1-1-1-1-1-1-x-6-|
|---------------------------1-3---|-------------------------------|

|---------------------------------|-------------------------------|
|---------------------------------|-------------------------------|
|-----------------------------3-1-|-3-3-3-3-3-3-3-3-3-3-3-3-3-3-3-|
|-1-1-1-1-1-1-1-1-1-1-1-1-1-1-----|-------------------------------|


Outro

|---------------------------------|---------------------------------|
|---------------------------------|-5-------------------------------|
|------------------------------5--|---------------------------------|
|-3-------------------------------|---------------------------------|

|---------------------------------|---------------------------------|
|---------------------------------|---------------------------------|
|---------------------------------|---------------------------------|
|-3/15----------------------------|---------------------------------|
            
Submit corrections

comments powered by Disqus
↑ Back to top | Afi Bass for Beautiful Thieves. Lyrics for acoustic guitar and electric guitar. Tablatures and chords are parodies/interpretations of the original songs. You may use it for private study, scholarship, research or language learning purposes only