» » »

Afi, Beautiful Thieves Tabs (ver.2)

Artists:  A B C D E F G H I J K L M N O P Q R S T U V W X Y Z # 

Beautiful Thieves Tabs (ver.2)

Afi Tabs
 Rating:
4.3/5 (6 votes)
Beautiful Thieves lessons Tabs too difficult? Try these video lessons and learn fast
                its not the whole song... but its close, i have to go out so i could only post this 
for now, i'll try and work on it all later

here it is, AFI beautiful Thieves from the amazing new album, Crash Love! ;D have fun

tuning- half a step down

|---------------------------------------------------------------|
|---------------------------------------------------------------|
|---------------------------------------------------------------|
|-------------------8-8-8-8-10-10-10----------------------------|
|--10-10-10-8-8-8-8------------------8-8-10-10------------------|
|---------------------------------------------------------------|
 repeat this bit 4 times!

verse:

|------------------------------------------------------------------|
|------------------------------------------------------------------|
|----------0------0------0-------------------0------0------0-------|
|-----8------8------8------8----8-------7------7------7------7---7-|
|--10---10-----10-----10-----10-------8---8------8------8------8---|
|------------------------------------------------------------------|

|---------------------------------------------------------------|
|---------------------------------------------------------------|
|--------0-----0-----0----------------0--------------0----------|
|----8-----8-----8-----8---8------7-----7---7----7-----7---7----|
|--6---6-----6-----6-----6------8---8-----8----9---9-----9------|
|---------------------------------------------------------------|


just before the chorus go in to

|---------------------------------------------------------------|
|---------------------------------------------------------------|
|---------------------------------------------------------------|
|---------------------------------------------------------------|
|-10---x15-(give it a slight bend)------------------------------|
|---------------------------------------------------------------|


CHROUS:


|--------------------------------------------------------------|
|--------------------------------------------------------------|
|--8--8-8-8-8-8-8-8-8-----3--3-3-3-3-3-3-3-3-------------------|
|--8--8-8-8-8-8-8-8-8-----3--3-3-3-3-3-3-3-3-------------------|
|--6--6-6-6-6-6-6-6-6-----1--1-1-1-1-1-1-1-1-------------------|
|--------------------------------------------------------------|


|------------------------------------------------------------------|
|------------------------------------------------------------------|
|------------------------------------------------------------------|
|--3--3-3-3-3-3-3-3-3----5--5-5-5-5-5-5-5-5-5-----x-3--x-5---------|
|--3--3-3-3-3-3-3-3-3----5--5-5-5-5-5-5-5-5-5-----x-3--x-5---------|
|--1--1-1-1-1-1-1-1-1----3--3-3-3-3-3-3-3-3-3-----x-1--x-3---------|


|--------------------------------------------------------------|
|--------------------------------------------------------------|
|--8--8-8-8-8-8-8-8-8-----3--3-3-3-3-3-3-3-3-------------------|
|--8--8-8-8-8-8-8-8-8-----3--3-3-3-3-3-3-3-3-------------------|
|--6--6-6-6-6-6-6-6-6-----1--1-1-1-1-1-1-1-1-------------------|
|--------------------------------------------------------------|


|------------------------------------------------------------------|
|------------------------------------------------------------------|
|------------------------------------------------------------------|
|--3--3-3-3-3-3-3-3-3---10-10-10-10-10-10-10-10-10-10--------------|
|--3--3-3-3-3-3-3-3-3---10-10-10-10-10-10-10-10-10-10--------------|
|--1--1-1-1-1-1-1-1-1----8--8--8--8--8--8--8--8--8--8--------------|


then back in to the intro:


|---------------------------------------------------------------|
|---------------------------------------------------------------|
|---------------------------------------------------------------|
|-------------------8-8-8-8-10-10-10----------------------------|
|--10-10-10-8-8-8-8------------------8-8-10-10------------------|
|---------------------------------------------------------------|
            
Submit corrections

comments powered by Disqus
↑ Back to top | Afi Tabs for Beautiful Thieves. Lyrics for acoustic guitar and electric guitar. Tablatures and chords are parodies/interpretations of the original songs. You may use it for private study, scholarship, research or language learning purposes only