» » »

Afi, Asprin Free Tabs (ver.2)

Artists:  A B C D E F G H I J K L M N O P Q R S T U V W X Y Z # 

Asprin Free Tabs (ver.2)

Afi Tabs
Rating:
3/5 (1 vote)
Asprin Free lessons Tabs too difficult? Try these video lessons and learn fast
                -------------------------------------------------------------------------------
                             ASPRIN FREE - AFI
-------------------------------------------------------------------------------


Tuning: Standard E

INTRO
   G   G5       Bb5      F5               G5       Bb5      F5
e|-3-----------------------------------------------------------|
B|-3-----------------------------------------------------------|
G|-4------------3-3-3-3----------------------------3-3-3-3-----|
D|-5---5-5-5-5--3-3-3-3--3-3-3-3-3-3-3-3--5-5-5-5--3-3-3-3--3--|
A|-5---5-5-5-5--1-1-1-1--3-3-3-3-3-3-3-3--5-5-5-5--1-1-1-1--3--|
E|-3---3-3-3-3-----------1-1-1-1-1-1-1-1--3-3-3-3-----------1--|

VERSE
e|--------------------------------------------------------------------|
B|--------------------------------------------------------------------|
G|---------3-3-3-3---------7-7---------------3-3-3-3------------------|
D|-5-5-5-5-3-3-3-3-5-5-5-5-7-7-7/8-8\5-5-5-5-3-3-3-3-3-3-3-3-3-3-3-3--|
A|-5-5-5-5-1-1-1-1-5-5-5-5-5-5-7/8-8\5-5-5-5-1-1-1-1-3-3-3-3-3-3-3-3--|
E|-3-3-3-3---------3-3-3-3-----5/6-6\3-3-3-3---------1-1-1-1-1-1-1-1--|

CHORUS
e|---------------------------------------------------------|
B|---------------------------------------------------------|
G|-----------------4-4-4-4-4-4-4-4-------------------------|
D|-2-2-2-2-5-5-5-5-4-4-4-4-4-4-4-4-2-2-2-2-5-5-5-5-7-7-7-7-|
A|-2-2-2-2-5-5-5-5-2-2-2-2-2-2-2-2-2-2-2-2-5-5-5-5-7-7-7-7-|
E|-0-0-0-0-3-3-3-3-----------------0-0-0-0-3-3-3-3-5-5-5-5-|

FIRST BRIDGE
e|-------------------------------------------------------
B|-------------------------------------------------------
G|-9-9-9-9\5\4-2-2-2-2-5-7-9-8-9-9\5\4-2-2-2-2-7-7-7-7-
D|-9-9-9-9\5\4-2-2-2-2-5-7-9-9-9-9\5\4-2-2-2-2-7-7-7-7-
A|-7-7-7-7\3\2-0-0-0-0-3-5-7-7-7-7\3\2-0-0-0-0-5-5-5-5-
E|-0-0-0-0-----------------0-0-0-0----------------------

e|---------------------------------------------------------|
B|---------------------------------------------------------|
G|-9-9-9-9\5\4-2-2-2-2-5-7-4-4-4-4-4-4-4-4-5-5-5-5-5-5-5-5-|
D|-9-9-9-9\5\4-2-2-2-2-5-7-4-4-4-4-4-4-4-4-5-5-5-5-5-5-5-5-|
A|-7-7-7-7\3\2-0-0-0-0-3-5-2-2-2-2-2-2-2-2-3-3-3-3-3-3-3-3-|
E|-0-0-0-0-------------------------------------------------|


LAST BRIDGE
e-|-----------------------------------------------------------------------|
B-|-----------------------------------------------------------------------|
G-|-----------------5-5-5-5-------------5-7---------5-5-5-5-10-10-10-10-9-|
D-|-2:-3-2:-2-2-2-2-5-5-5-5-7-7-7-7-7-7-5-7-2-2-2-2-5-5-5-5-10-10-10-10-9-|
A-|-2:-3-2:-2-2-2-2-3-3-3-3-7-7-7-7-7-7-3-5-2-2-2-2-3-3-3-3--8--8--8--8-7-|
E-|-0:-1-0:-0-0-0-0---------5-5-5-5-5-5-----0-0-0-0---------------------0-|

| /  slide up
| \  slide down
| h  hammer-on
| p  pull-off
| ~  vibrato
| +  harmonic
| x  Mute note
| :  Let ring, hold it out
===============================================================================
            

comments powered by Disqus
↑ Back to top | Afi Tabs for Asprin Free. Lyrics for acoustic guitar and electric guitar. Tablatures and chords are parodies/interpretations of the original songs. You may use it for private study, scholarship, research or language learning purposes only