» » »

Afi, Asprin Free Tabs (ver.1)

Artists:  A B C D E F G H I J K L M N O P Q R S T U V W X Y Z # 

Asprin Free Tabs (ver.1)

Afi Tabs
 Rating:
3.6/5 (7 votes)
Asprin Free lessons Tabs too difficult? Try these video lessons and learn fast
1
                -------------------------------------------------------------------------------
-------------------------------------------------------------------------------
Added By Mikhailo


Intro:
e-|-3------------------------------------------------------|
B-|-0------------------------------------------------------|
G-|-0------------------------------------------------------|
D-|-0-----------3-3-3-3-------------------------3-3-3-3----|
A-|-2---5-5-5-5-1-1-1-1-3-3-3-3-3-3-3-3-5-5-5-5-1-1-1-1--3-|
E-|-3---3-3-3-3---------1-1-1-1-1-1-1-1-3-3-3-3----------1-|

Verse:
e-|-----------------------------------------------------------------|
B-|-----------------------------------------------------------------|
G-|-----------------------------------------------------------------|
D-|-------------------------7---------------------------------------|
A-|-5-5-5-5-8-8-8-8-5-5-5-5-5-7-8-8-5-5-5-5-8-8-8-8-3-3-3-3-3-3-3-3-|
E-|-3-3-3-3-6-6-6-6-3-3-3-3---5-6-6-3-3-3-3-6-6-6-6-1-1-1-1-1-1-1-1-|

Chorus:
e-|------------------------------------------------------------|
B-|------------------------------------------------------------|
G-|------------------------------------------------------------|
D-|-----------------4-4-4-4-4-4-4-4----------------------------|
A-|-2-2-2-2-5-5-5-5-2-2-2-2-2-2-2-2-2-2-2-2-5-5-5-5-7--7--7--7-|
E-|-0-0-0-0-3-3-3-3-----------------0-0-0-0-3-3-3-3-5--5--5--5-|

Bridge:
e-|-------------------------------------------------------
B-|-------------------------------------------------------
G-|-------------------------------------------------------
D-|-9-9-9-9--------------5-7-9-9-9-9--------------7-7-7-7-
A-|-7-7-7-7-10-9-7-7-7-7-3-5-7-7-7-7-10-9-7-7-7-7-5-5-5-5-
E-|----------8-7-5-5-5-5--------------8-7-5-5-5-5---------

e-|----------------------------------------------------------|
B-|----------------------------------------------------------|
G-|----------------------------------------------------------|
D-|-9-9-9-9--------------5-7-4-4-4-4-4-4-4-4-5-5-5-5-5-5-5-5-|
A-|-7-7-7-7-10-9-7-7-7-7-3-5-2-2-2-2-2-2-2-2-3-3-3-3-3-3-3-3-|
E-|----------8-7-5-5-5-5-------------------------------------|

Bridge2:
e-|--------|---------------------------------------------------------------|
B-|--------|---------------------------------------------------------------|
G-|--------|---------------------------------------------------------------|
D-|--------|---------5-5-5-5-------------5-7---------5-5-5-5-10-10-10-10-9-|
A-|-2--3-2-|-2-2-2-2-3-3-3-3-7-7-7-7-7-7-3-5-2-2-2-2-3-3-3-3--8--8--8--8-7-|
E-|-0--1-0-|-0-0-0-0---------5-5-5-5-5-5-----0-0-0-0-----------------------|
            
Submit corrections

comments powered by Disqus
↑ Back to top | Afi Tabs for Asprin Free. Lyrics for acoustic guitar and electric guitar. 1 Tablatures and chords are parodies/interpretations of the original songs. You may use it for private study, scholarship, research or language learning purposes only