» » »

Afi, Affliction Bass tabs (ver.3)

Artists:  A B C D E F G H I J K L M N O P Q R S T U V W X Y Z # 

Affliction Bass tabs (ver.3)

Afi Tabs
Rating:
0/5 (0 votes)
Affliction lessons Tabs too difficult? Try these video lessons and learn fast
                AFI - AFFLICTION
Decemberunderground (2006)


**TUNE Eb Ab Db Gb**

The signs mean the usual -
x = mute
~ = let ring
/ = slide
h = hammer on


Intro
Gb|-------------------------|
Db|----------5--4/5-7-6-5---|
Ab|-------5-7-7----------7--|x3
Eb|-5-567-------------------|

Gb|-------------------------|
Db|---------------------46--|
Ab|-4-44-44-x-4-x-4--46-----|x1
Eb|-----------------4-------|

Verse
Gb|-------------------------|
Db|----------5--4/5-7-6-5---|
Ab|-------5-7-7----------7--|x3
Eb|-5-567-------------------|

Gb|-------------------------|
Db|---------------------46--|
Ab|-4-44-44-x-4-x-4--46-----|x1
Eb|-----------------4-------|

Gb|-------------------------|
Db|----------5--4/5-7-6-5---|
Ab|-------5-7-7----------7--|x3
Eb|-5-567-------------------|

Gb|-----------------------------------|
Db|-7767-/9979-/10-10-9-10--/12-12-12-|
Ab|-----------------------------------|x1
Eb|-----------------------------------|

Pre Chorus
Gb|------------------------|-------------------------|
Db|------------------------|-------------------77777-|
Ab|------------------------|-------------------------|x1
Eb|-55xx-x5x5-55xx-5x5-6-6-|-55xx-x5x5-55xx-5x5------|

Chorus
Gb|----------|-------------------------|
Db|----------|-55-33-22-00-33-22-00----|
Ab|-33333333-|----------------------33-|x1
Eb|----------|-------------------------|

Gb|------------------|-------------------------|
Db|------------------|-------------------------|
Ab|------------------|-------------22----00-22-|x1
Eb|-1-1-1-1-x1x1-1-1-|-55-00-11-33----33-------|

Gb|----------|-------------------------|
Db|----------|-55-33-22-00-33-22-00----|
Ab|-33333333-|----------------------33-|x1
Eb|----------|-------------------------|

Gb|------------------|------------|
Db|------------------|------------|
Ab|------------------|-7-7777-567-|x1
Eb|-1-1-1-1-x1x1-1-1-|------------|

Play through whole intro once
Second verse is the same as the first
The second pre chorus is also the same as the first

Chorus
Gb|----------|-------------------------|
Db|----------|-55-33-22-00-33-22-00----|
Ab|-33333333-|----------------------33-|x1
Eb|----------|-------------------------|

Gb|------------------|-------------------------|
Db|------------------|-------------------------|
Ab|------------------|-------------22----00-22-|x1
Eb|-1-1-1-1-x1x1-1-1-|-55-00-11-33----33-------|

Gb|----------|-------------------------|
Db|----------|-55-33-22-00-33-22-00----|
Ab|-33333333-|----------------------33-|x1
Eb|----------|-------------------------|

Gb|------------------|---------------------|
Db|------------------|---------------------|
Ab|------------------|-7777777777-56777777-|x1
Eb|-1-1-1-1-x1x1-1-1-|---------------------|

Bridge pt 1 (instrumental)
Gb|------|--------------|----------|
Db|------|--------------|----------|
Ab|------|-(short rest)-|-0~~-/12~-|x1
Eb|-5~~~-|--------------|----------|

Gb|-12h14-12----12-------------------------|
Db|----------14----14-12h14-12----12h14----|
Ab|----------------------------15-------15-|
Eb|----------------------------------------|

Bridge pt 2 (so staaaaaaay sweetly numb)
Gb|---------------------------|
Db|---------------------------|
Ab|-0~------------------------|x1
Eb|----5-7-8-7-575-1-111-0000-|

Gb|------------------------------|
Db|------------------------------|
Ab|-0~---------------------------|
Eb|----5-7-8-7-575-1-111-0000-x3-|

Gb|---------------------------|
Db|---------------------------|
Ab|-0~------------------------|x1
Eb|----5-7-8-7-575-1-111-0000-|

Gb|-------------------------------------|
Db|-------------------------------------|
Ab|-0~-------------------77-55----------|x1
Eb|----5-7-8-7-575-1-111-------88-77-5~-|

Rest for a few moments, then just play
Ab|-77777777-|

Then play the prechorus, the same as before
Then the second chorus once

Outro
Gb|----------------------------|
Db|---5--577----5--577---------|
Ab|-0---7----00---7------------|x1
Eb|--------------------555-666-|

Gb|-------------------------------|
Db|---5--577----5--577------------|
Ab|-0---7----00---7-----555-666---|x1
Eb|-----------------------------5-|
            

comments powered by Disqus
↑ Back to top | Afi Bass for Affliction. Lyrics for acoustic guitar and electric guitar. Tablatures and chords are parodies/interpretations of the original songs. You may use it for private study, scholarship, research or language learning purposes only