>
 >
 >
6 To 8 1

6 To 8 1 Guitar Tabs

Afi - 6 To 8 1 chords, tabs, tablatures, lyrics

Guitar lessons | Add/correct | Request | Top 50 tabs Artists:  A B C D E F G H I J K L M N O P Q R S T U V W X Y Z 0-9

6 To 8 1 Guitar Tabs – Afi

CD, Sheet music, Poster

Do you like 6 To 8 1? Share with your friends now
Bass TabsTabsTabs v2Tabs v3Tabs v4Tabs v5Tabs v6
Band: AFI 
Tunning: Standerd



Intro: clean 
|-----------------------------------------|
|-----------------------------------------|
|-----------------------------------------|  X2
|--9--9---5--5---7--7---7----7---7---7----|   
|--0--0-0-0--0-0-0--0-0-0--0---0---0------|
|-----------------------------------------|

verse1: clean 
|-----------------------------------------|
|-----------------------------------------|
|-----------------------------------------|  X4
|--9--9---5--5---7--7---7----7---7---7----|
|--0--0-0-0--0-0-0--0-0-0--0---0---0------|
|-----------------------------------------|



interlude: clean 
|-------------------------------------------------------------------|
|-------------------------------------------------------------------|
|-2----2--4p2-------2----2--4p2-----2--2-2-2-2--2-2-2-2--2-2-2-2----|  X2
|---2---------2-------2---------2---0--0-0-0-0--0-0-0-0--0-0-0-0----|
|----------------3--------------------------------------------------|
|-------------------------------------------------------------------|

|-----------------------------------------|
|-----------------------------------------|
|-----------------------------------------|  X2
|--9--9---5--5---7--7---7----7---7---7----|
|--0--0-0-0--0-0-0--0-0-0--0---0---0------|
|-----------------------------------------|

   
verse2: clean
|------------------------------------------------------------------------------|
|-10-10-10-10-10-10-10-10--5-5-5-5-5-5-5-5--8-8-8-8-8-8-8-8--7-7-7-7-7-7-7-7---|
|-9--9--9--9--9--9--9--9---5-5-5-5-5-5-5-5--7-7-7-7-7-7-7-7--7-7-7-7-7-7-7-7---|  X3
|-9--9--9--9--9--9--9--9---5-5-5-5-5-5-5-5--7-7-7-7-7-7-7-7--7-7-7-7-7-7-7-7---|
|------------------------------------------------------------------------------|
|------------------------------------------------------------------------------|


gtr:1
|------------------------------------------------------------------------------|
|-10-10-10-10-10-10-10-10--5-5-5-5-5-5-5-5--8-8-8-8-8-8-8-8--7-7-7-7-7-7-7-7---|
|-9--9--9--9--9--9--9--9---5-5-5-5-5-5-5-5--7-7-7-7-7-7-7-7--7-7-7-7-7-7-7-7---|
|-9--9--9--9--9--9--9--9---5-5-5-5-5-5-5-5--7-7-7-7-7-7-7-7--7-7-7-7-7-7-7-7---|
|------------------------------------------------------------------------------|
|------------------------------------------------------------------------------|
gtr:2  distorted
|---------------------------------------------------5-5-5-5--5-5-5-5-5-5-5-5---|
|---------------------------------------------------7-7-7-7--7-7-7-7-7-7-7-7---|
|---------------------------------------------------7-7-7-7--7-7-7-7-7-7-7-7---|
|---------------------------------------------------7-7-7-7--7-7-7-7-7-7-7-7---|
|---------------------------------------------------5-5-5-5--5-5-5-5-5-5-5-5---|
|---------------------------------------------------5-5-5-5--5-5-5-5-5-5-5-5---|

chorus: distorted 
|-3-3-3-3-3--*--3-3-3---------0-0-0-0-------------5-5-5-5-5-5----------------|
|-5-5-5-5-5--S--3-3-3---------0-0-0-0-------------5-5-5-5-5-5--0-0-0-0-0-0---|
|-5-5-5-5-5--T--4-4-4---------0-0-0-0---7/9--7/9--6-6-6-6-6-6--4-4-4-4-4-4---|  X4
|-5-5-5-5-5--O--5-5-5--4-4-4--2-2-2-2-------------7-7-7-7-7-7--5-5-5-5-5-5---|   
|-3-3-3-3-3--P--5-5-5--5-5-5--2-2-2-2---5/7--5/7--7-7-7-7-7-7--2-2-2-2-2-2---|
|-3-3-3-3-3--*--3-3-3--2-2-2--0-0-0-0---0-0--0-0--5-5-5-5-5-5----------------|


verse3: distorted
|------------------------------------------------------------------------------|
|-10-10-10-10-10-10-10-10--5-5-5-5-5-5-5-5--8-8-8-8-8-8-8-8--7-7-7-7-7-7-7-7---|
|-9--9--9--9--9--9--9--9---5-5-5-5-5-5-5-5--7-7-7-7-7-7-7-7--7-7-7-7-7-7-7-7---|  X3
|-9--9--9--9--9--9--9--9---5-5-5-5-5-5-5-5--7-7-7-7-7-7-7-7--7-7-7-7-7-7-7-7---|
|------------------------------------------------------------------------------|
|------------------------------------------------------------------------------|

|------------------------------------------------------------5-5-5-5-5-5-5-5---|
|-10-10-10-10-10-10-10-10--5-5-5-5-5-5-5-5--8-8-8-8-8-8-8-8--7-7-7-7-7-7-7-7---|
|-9--9--9--9--9--9--9--9---5-5-5-5-5-5-5-5--7-7-7-7-7-7-7-7--7-7-7-7-7-7-7-7---|
|-9--9--9--9--9--9--9--9---5-5-5-5-5-5-5-5--7-7-7-7-7-7-7-7--7-7-7-7-7-7-7-7---|
|------------------------------------------------------------5-5-5-5-5-5-5-5---|
|------------------------------------------------------------5-5-5-5-5-5-5-5---|

chorus: distorted 
|-3-3-3-3-3--*--3-3-3---------0-0-0-0-------------5-5-5-5-5-5----------------|
|-5-5-5-5-5--S--3-3-3---------0-0-0-0-------------5-5-5-5-5-5--0-0-0-0-0-0---|
|-5-5-5-5-5--T--4-4-4---------0-0-0-0---7/9--7/9--6-6-6-6-6-6--4-4-4-4-4-4---|  X4
|-5-5-5-5-5--O--5-5-5--4-4-4--2-2-2-2-------------7-7-7-7-7-7--5-5-5-5-5-5---|
|-3-3-3-3-3--P--5-5-5--5-5-5--2-2-2-2---5/7--5/7--7-7-7-7-7-7--2-2-2-2-2-2---|
|-3-3-3-3-3--*--3-3-3--2-2-2--0-0-0-0---0-0--0-0--5-5-5-5-5-5----------------|


break:  distorted
|----------------------------------------------------5--5-5-5-5--5-5-5-5--5-5-5-5--|
|----------------------------------------------------7--7-7-7-7--7-7-7-7--7-7-7-7--|
|---2---2-----2--4p2--------2---2-----2--4p2---------7--7-7-7-7--7-7-7-7--7-7-7-7--|  X3
|---2------2-----------2----2-------2------------2---7--7-7-7-7--7-7-7-7--7-7-7-7--|
|---0-----------------------3------------------------5--5-5-5-5--5-5-5-5--5-5-5-5--|
|----------------------------------------------------5--5-5-5-5--5-5-5-5--5-5-5-5--|

|----------------------------------------------------5--5-5-5-5---------------------|
|---------------------- -----------------------------7--7-7-7-7---------------------|
|---2---2-----2--4p2--------2---2-----2--4p2---------7--7-7-7-7---------------------|
|---2------2-----------2----2-------2------------2---7--7-7-7-7--4-4-4-4--4-4-4-4---|
|---0-----------------------3------------------------5--5-5-5-5--5-5-5-5--5-5-5-5---|
|----------------------------------------------------5--5-5-5-5--7-7-7-7--7-7-7-7---|

chorus: ditorted

|-3-3-3-3-3--*--3-3-3---------0-0-0-0-------------5-5-5-5-5-5----------------|
|-5-5-5-5-5--S--3-3-3---------0-0-0-0-------------5-5-5-5-5-5--0-0-0-0-0-0---|
|-5-5-5-5-5--T--4-4-4---------0-0-0-0---7/9--7/9--6-6-6-6-6-6--4-4-4-4-4-4---|  X3
|-5-5-5-5-5--O--5-5-5--4-4-4--2-2-2-2-------------7-7-7-7-7-7--5-5-5-5-5-5---|
|-3-3-3-3-3--P--5-5-5--5-5-5--2-2-2-2---5/7--5/7--7-7-7-7-7-7--2-2-2-2-2-2---|
|-3-3-3-3-3--*--3-3-3--2-2-2--0-0-0-0---0-0--0-0--5-5-5-5-5-5----------------|

|-3-3-3-3-3--*---------------------------------------|
|-5-5-5-5-5--S---------------------------------------|
|-5-5-5-5-5--T-------------------4-4-4-4-4-4-4-4-----|(now guitar 2 comes in with the solo 
|-5-5-5-5-5--O--5-5-5-5-5-5-5-5--5-5-5-5-5-5-5-5-----| witch starts at the end of the opened 
|-3-3-3-3-3--P--5-5-5-5-5-5-5-5--5-5-5-5-5-5-5-5-----|part. also guitar 1 plays chorus 
|-3-3-3-3-3--*--3-3-3-3-3-3-3-3--3-3-3-3-3-3-3-3-----|chords behind the solo.)
                ..palm.muted...

solo: distorted
|---------------------------------------------------------------------------7-------|
|---12-----------------12-------12--12-12-12-12-12---0--0--0--0------8--------8-----|
|---14fb14--12--14------12--12--12--12-12-12-12--7---7--7--9--9--------9--------9---|
|-----------------------------------------------------------------------------------|
|-----------------------------------------------------------------------------------|
|-----------------------------------------------------------------------------------|

|-----------------------------------0---0---0----0----0---0---0---0----0---0----|
|----------------------0--0--0--0---10--10--10---12---12--12--12--12---17--17---|
|---9--12--14/16--12---9--9--9--9--9--------------------------------------------|
|-------------------------------------------------------------------------------|
|-------------------------------------------------------------------------------|
|-------------------------------------------------------------------------------|

|----0---0---0--15--15--15---14--14---15---17---14--14---15-------15-------------15--15---15--|
|---17--17--17--12--12--12---12--12---12---15---15--15---17------------17---17---17--17---17--|
|--------------------------------------------------------------16-----------16---16--16---16--|
|---------------------------------------------------------------------------------------------|
|---------------------------------------------------------------------------------------------|
|---------------------------------------------------------------------------------------------|

|---15--15--15~---14~---15~---|
|---12--12--12~---12~---12~---|
|-----------------------------|
|-----------------------------|
|-----------------------------|
|-----------------------------|





Comments


Popular Afi tabs & chords
Brownie Bottom Sundae Intro 1 Bass Tabs
End Transmission Bass Tabs
Missing Frame 2 Bass Tabs
Now The World 1 Bass Tabs
Red Hat 1 Bass Tabs
This Time Imperfect Chords
Leaving Song Part 2 2 Tabs
Miseria Cantare Tabs
Morning Star Tabs
Narrative Of A Soul Against Souls Tabs


Song lyrics



↑ Back to top | Tablatures and chords are parodies/interpretations of the original songs. You may use it for private study, scholarship, research or language learning purposes only
© 2014 AZChords.com Contact us | Privacy policy | DMCA | Add/correct tabs | Request tabs | Top 50 tabs